Temas de TV

home > Temas de TV

Correndo Na Praia Tab

Temas de TV

Difficulty: nolevelnolevel

by gustsilva

tuner correct add songbook print version text version save to e-mail
chordsukulelecavacokeyboardtabbassdrumsharmonicsflute Guitar Pro
chords

Correndo Na Praia

  		 
E|-----8-------------8------------8-------------------- 
B|-9-11--11-8---9-11---11-8---9-11--11-8---8-9-8------- 
G|9------------9-------------9-------------------9-9--- 
D|----------------------------------------------------- 
A|----------------------------------------------------- 
E|----------------------------------------------------- 
 

(repete 2x) 

 
E|9-9-8----8--7--6--9-9-8----8---7--6--9-9-8----8--7--6-- 
B|------10---9--9---------10---9---9---------10---9--9--- 
G|------------------------------------------------------- 
D|------------------------------------------------------- 
A|------------------------------------------------------- 
E|------------------------------------------------------- 
 

E|----------- 
B|8-9-8------ 
G|------9-9-- 
D|----------- 
A|----------- 
E|----------- 
	  

Search Paypal
auto scroll beats size up size down change color hide chords drawings
tab show chords e-chords YouTube Clip e-chords hide all tabs e-chords go to top tab