Temas de TV

home > Temas de TV

Bob Esponja Tab

Temas de TV

Difficulty: nolevelnolevel

by gustsilva

tuner correct add songbook print version text version save to e-mail
chordsukulelecavacokeyboardtabbassdrumsharmonicsflute Guitar Pro
chords

Bob Esponja

  		Riff principal: 
 
E|-----------------------| 
B|---9----9------9-----9-| 
G|---9----9------9-----9-| 
D|-----------------------| 
A|-7-----------7---------| 
E|------7------------7---| 
 

Riff 2: 
E|---7-6-7-9-7--------7-6-7-9-7------7-6-7-9-7--------7-6-7-9-7----| 
B|-------------9-------------------------------9-------------------| 
G|-----------------------------------------------------------------| 
D|-----------------------------------------------------------------| 
A|-----------------------------------------------------------------| 
E|-----------------------------------------------------------------| 

E|-11-12-| 
B|-11-12-| 
G|-------| 
D|-------| 
A|-------| 
E|-------| 
	  

Search Paypal
auto scroll beats size up size down change color hide chords drawings
tab show chords e-chords YouTube Clip e-chords hide all tabs e-chords go to top tab