Temas de TV

home > Temas de TV

Backyardigans (encerramento) Tab

Temas de TV

Difficulty: nolevelnolevel

by gustsilva

tuner correct add songbook print version text version save to e-mail
chordsukulelecavacokeyboardtabbassdrumsharmonicsflute Guitar Pro
chords

Backyardigans (encerramento)

  		 
E|-------16----15---13--11-11-11-11--13--11-11-----------------| 
B|-------------------------------------------------------------| 
G|-------------------------------------------------------------| 
D|-------------------------------------------------------------| (2x) 
A|-------------------------------------------------------------| 
E|-------------------------------------------------------------| 
 

 
E|-------9-10-11-10-11-13-9------------------------------------| 
B|-------------------------------------------------------------| 
G|-------------------------------------------------------------| 
D|-------------------------------------------------------------| (3x) 
A|-------------------------------------------------------------| 
E|-------------------------------------------------------------| 
 

 
E|-------9--9-9--11--11-11--13--13-13--14-14-14--15------------| 
B|-------------------------------------------------------------| 
G|-------------------------------------------------------------| 
D|-------------------------------------------------------------| (2x) 
A|-------------------------------------------------------------| 
E|-------------------------------------------------------------| 
 

 
E|-------16-18--18-18-19-19-19---------------------------------| 
B|-------------------------------------------------------------| 
G|-------------------------------------------------------------| 
D|-------------------------------------------------------------| 
A|-------------------------------------------------------------| 
E|-------------------------------------------------------------| 
 

E|-------16----15---13--11-11-11-11--13--11-11~~~~-------------| 
B|-------------------------------------------------------------| 
G|-------------------------------------------------------------| 
D|-------------------------------------------------------------| 
A|-------------------------------------------------------------| 
E|-------------------------------------------------------------| 
	  

Search Paypal
auto scroll beats size up size down change color hide chords drawings
tab show chords e-chords YouTube Clip e-chords hide all tabs e-chords go to top tab