Temas de TV

home > Temas de TV

Ayrton Senna (tema Da Vitória) Tab

Temas de TV

Difficulty: ExpertExpert

by gustsilva

tuner correct add songbook print version text version save to e-mail
chordsukulelecavacokeyboardtabbassdrumsharmonicsflute Guitar Pro
chords

Ayrton Senna (tema Da Vitória)

  		 
    E    D       A  E    D       A 
e|--4-4--2--2-2--0--4-4--2--2-2--0--| 
B|--5-5--3--3-3--3--5-5--3--3-3--3--| 
G|--4-4--2--2-2--3--4-4--2--2-2--3--| 
D|---------------3---------------3--| 
A|----------------------------------| 
E|----------------------------------| 
 
Parte do Piano: 
 
e|----------------------------9------------------------------------------| 
B|--9--9-10-12-10-9-----10-12--------------9-10-9------------------------| 
G|------------------11--------------11--11--------11-9-------------------| 
D|------------------------------11---------------------------------------| 
A|-----------------------------------------------------------------------| 
E|-----------------------------------------------------------------------| 
 
Parte do sax: 
 
e|-----------------------------------------------------------------------| 
B|--5------5-------------4------------------------------------5-7-5-7-9--| 
G|-----6-8---8-6-8---4-6---6-4-6-----4-6-4-------------6--6-8------------| 
D|---------------------------------7-------7--6--4-----------------------| 
A|---------------------------------------------------7-------------------| 
E|-----------------------------------------------------------------------| 
 
   
 
e|-----------------------------------------------------------------------| 
B|--9-10-12-10-9---------------------------------------------------------| 
G|---------------11-------9--8-------------------------------------------| 
D|--------------------11-------------------------------------------------| 
A|-----------------------------------------------------------------------| 
E|-----------------------------------------------------------------------| 
 
  
Repete Tudo 
	  

Full key step upFull key step up
Half key step upHalf key step up
Half key step downHalf key step down
Full key step downFull key step down
Search Paypal
auto scroll beats size up size down change color hide chords drawings
tab show chords e-chords YouTube Clip e-chords hide all tabs e-chords go to top tab