Temas de Filmes

home > Temas de Filmes

When You Wish Upon a Star Tab

Temas de Filmes

Difficulty: EasyEasy

by laiscamaral

tuner correct add songbook print version text version save to e-mail
chordsukulelecavacokeyboardtabbassdrumsharmonicsflute Guitar Pro
chords

When You Wish Upon a Star

	  E----3----1----0-------5---------7--5---3-------2---3--8- 
B----------------2-3--------0---------------------------- 
G-0------------------------------------------------------ 
D-------------------------------------------------------- 
A-------------------------------------------------------- 
E-------------------------------------------------------- 
When you wish upon a star, Makes no difference who you are 

E10-8-7-----5---3----1--0----------5-------3--------- 
B-----------------------------3--------0------------- 
G---------------------------------------------------- 
D---------------------------------------------------- 
A---------------------------------------------------- 
E---------------------------------------------------- 
 Anything your heart desires Will come to you 

E----3----1----0-----------5---------7--5---3---2---3--8- 
B------------------2-3------------0---------------------- 
G-0------------------------------------------------------ 
D-------------------------------------------------------- 
A-------------------------------------------------------- 
E-------------------------------------------------------- 
 If your heart is in your dream, No request is too extreme 

E10---8---7----5-3--1--0----------5----------------- 
B---------------------------3-------0---1----------- 
G--------------------------------------------------- 
D--------------------------------------------------- 
A--------------------------------------------------- 
E--------------------------------------------------- 
 When you wish upon a star As dreamers do 

E------0---3---------0-----1---2-----5---3---------- 
B--3-------------3---------------------------------- 
G--------------------------------------------------- 
D--------------------------------------------------- 
A--------------------------------------------------- 
E--------------------------------------------------- 
 Fate is kind   She brings to those who love 

E-0---2-----3-4---7-----5---5----7-8----8--7-------- 
B--------------------------------------------------- 
G--------------------------------------------------- 
D--------------------------------------------------- 
A--------------------------------------------------- 
E--------------------------------------------------- 
 The sweet fulfillment Of their secret longing 

E-----3--1----0----------5----------7----5--3----2----3--8--- 
B-----------------2-3----------0----------------------------- 
G-0---------------------------------------------------------- 
D------------------------------------------------------------ 
A------------------------------------------------------------ 
E------------------------------------------------------------ 
 Like a bolt out of the blue, Fate steps in and sees you thru 

E10----8---7----5-3-1--0----------5----------------- 
B---------------------------3---------0------1------ 
G--------------------------------------------------- 
D--------------------------------------------------- 
A--------------------------------------------------- 
E--------------------------------------------------- 
 When you wish upon a star Your dream comes true 

REPETE TUDO DO INÍCIO E SUBSTITUI O DREAM COMES TRUE PELO ÚLTIMO 

E----5----7-----8----------------------------------- 
B--------------------------------------------------- 
G--------------------------------------------------- 
D--------------------------------------------------- 
A--------------------------------------------------- 
E--------------------------------------------------- 
   dream comes true 
  




	  

Search Paypal
auto scroll beats size up size down change color hide chords drawings
tab show chords e-chords YouTube Clip e-chords hide all tabs e-chords go to top tab