Temas de Filmes

home > Temas de Filmes

Tomb Raider II Tab

Temas de Filmes

Difficulty: ExpertExpert

tuner correct add songbook print version text version save to e-mail
chordsukulelecavacokeyboardtabbassdrumsharmonicsflute Guitar Pro
chords

Tomb Raider II

	  KoRn 
Did My Time 
Trilha Sonora dp Filme : Tomb Raider II - Cradle of Life 
 
Afinação: Drop D D A D G B e} 
 
 
Intro:1 
e|-----------------------| 
B|-----------------------| 
G|-----------------------| 
D|-----------------------| 
A|--3555-3555-3555-3555--| 
D|-----------------------|4x Rápido 
 
Intro:2 
e|-------------------------------------------------------------| 
B|-------------------------------------------------------------| 
G|--7/888/7/888/7/888/7/888------------------------------------| 
D|--7/888/7/888/7/888/7/888------------------------------------| 
A|--5/666/5/666/5/666/5/666------------------------------------| 
D|-------------------------------------------------------------| 
 
Intro:1 - 1X 
Intro:2 - 1X 
Intro:1 - 1X 
Intro:2 - 1X (Pesado) 
Intro:1 - 1X 
Intro:2 - 1X (Pesado) 
 
 Chorus A 
e|-------------------------------------------------------------| 
B|-------------------------------------------------------------| 
G|-------------------------------------------------------------| 
D|-------------------------------------------------------------| 
A|--3/5-5-3-0--------------------------------------------------| 
D|------------3-1-0--------------------------------------------| 
 
 Chorus B 
e|-------------------------------------------------------------| 
B|-------------------------------------------------------------| 
G|--5/7-7-5-0--------------------------------------------------| 
D|--5/7-7-5-0-3-1-0--------------------------------------------| 
A|--3/5-5-3-0-3-1-0--------------------------------------------| 
D|------------3-1-0--------------------------------------------| 
 
Chorus A - 1X 
Chorus B - 8X 
 
 Verse 
e|-------------------------------------------------------------| 
B|-------------------------------------------------------------| 
G|--6/7-7-6/7-7-6/7-7-6/7-7-7/8-8-7/8-8-7/8-8-7/8-8------------| 
D|--6/7-7-6/7-7-6/7-7-6/7-7-7/8-8-7/8-8-7/8-8-7/8-8------------| 
A|--4/5-5-4/5-5-4/5-5-4/5-5-5/6-6-5/6-6-5/6-6-5/6-6------------| 
D|-------------------------------------------------------------| 4X 
 
 Chorus A 
e|-------------------------------------------------------------| 
B|-------------------------------------------------------------| 
G|-------------------------------------------------------------| 
D|-------------------------------------------------------------| 
A|--3/5-5-3-0--------------------------------------------------| 
D|------------3-1-0--------------------------------------------| 
 
 Chorus B 
e|-------------------------------------------------------------| 
B|-------------------------------------------------------------| 
G|--5/7-7-5-0--------------------------------------------------| 
D|--5/7-7-5-0-3-1-0--------------------------------------------| 
A|--3/5-5-3-0-3-1-0--------------------------------------------| 
D|------------3-1-0--------------------------------------------| 
 
Chorus A - 1X 
Chorus B - 8X 
 
 Verse 
e|-------------------------------------------------------------| 
B|-------------------------------------------------------------| 
G|--6/7-7-6/7-7-6/7-7-6/7-7-7/8-8-7/8-8-7/8-8-7/8-8------------| 
D|--6/7-7-6/7-7-6/7-7-6/7-7-7/8-8-7/8-8-7/8-8-7/8-8------------| 
A|--4/5-5-4/5-5-4/5-5-4/5-5-5/6-6-5/6-6-5/6-6-5/6-6------------| 
D|-------------------------------------------------------------| 4X 
 
 Chorus A 
e|-------------------------------------------------------------| 
B|-------------------------------------------------------------| 
G|-------------------------------------------------------------| 
D|-------------------------------------------------------------| 
A|--3/5-5-3-0--------------------------------------------------| 
D|------------3-1-0--------------------------------------------| 
 
 Chorus B 
e|-------------------------------------------------------------| 
B|-------------------------------------------------------------| 
G|--5/7-7-5-0--------------------------------------------------| 
D|--5/7-7-5-0-3-1-0--------------------------------------------| 
A|--3/5-5-3-0-3-1-0--------------------------------------------| 
D|------------3-1-0--------------------------------------------| 
 
Chorus A - 1X 
Chorus B - 8X 
 
 Bridge I 
e|-------------------------------------------------------------| 
B|-------------------------------------------------------------| 
G|-------------------------------------------------------------| 
D|--0-------0---------0-------0------8-------------------------| 
A|--0--6-5--0--6-5----0--6-5--0--6-5---------------------------| 
D|--0-------0------8--0-------0--------------------------------| 2X 
 
Bridge II 
e|-------------------------------------------------------------| 
B|-------------------------------------------------------------| 
G|-------------------------------------------------------------| 
D|--0-------0---------0-------0------8-------------------------| 
A|--0--9-8--0--9-8----0--9-8--0--9-8---------------------------| 
D|--0----0--0----0-8--0----0--0--------------------------------| 2X 
 
 "Did My Time" Riff I 
e|-------------------------------------------------------------| 
B|-------------------------------------------------------------| 
G|--5-5-555-5/7-0----------------------------------------------| 
D|--5-5-555-5/7-0----------------------------------------------| 
A|--3-3-333-3/5-0----------------------------------------------| 
D|-------------------------------------------------------------| 8X 
 
 "Did My Time" Riff II 
e|-------------------------------------------------------------| 
B|-------------------------------------------------------------| 
G|--4/5-5-4/5-5-4/5-5-4/5-5-6/7-7-6/7-7-6/7-7-6/7-7------------| 
D|--4/5-5-4/5-5-4/5-5-4/5-5-6/7-7-6/7-7-6/7-7-6/7-7------------| 
A|--2/3-3-2/3-3-2/3-3-2/3-3-4/5-5-4/5-5-4/5-5-4/5-5------------| 
D|-------------------------------------------------------------| 2X 
 
 Chorus B 
e|-------------------------------------------------------------| 
B|-------------------------------------------------------------| 
G|--5/7-7-5-0--------------------------------------------------| 
D|--5/7-7-5-0-3-1-0--------------------------------------------| 
A|--3/5-5-3-0-3-1-0--------------------------------------------| 
D|------------3-1-0--------------------------------------------| 8X 
 
 Outro/Verse 
e|-------------------------------------------------------------| 
B|-------------------------------------------------------------| 
G|--6/7-7-6/7-7-6/7-7-6/7-7-7/8-8-7/8-8-7/8-8-7/8-8------------| 
D|--6/7-7-6/7-7-6/7-7-6/7-7-7/8-8-7/8-8-7/8-8-7/8-8------------| 
A|--4/5-5-4/5-5-4/5-5-4/5-5-5/6-6-5/6-6-5/6-6-5/6-6------------| 
D|-------------------------------------------------------------| 2X 
 
 É Isso basicamente...Qualquer erro ou dúvida mande um e-mail 
 
-------------------------------------------------------------------- 
 
Letra:  
 
Realized I can never win 
Sometimes I feel like I've failed 
Inside where do I begin 
My mind is laughing at me  
 
Tell me, why am I to blame 
Aren't we, supposed to be the same 
That's why, I will never change 
This thing that's burning in me 
 
I am the one who chose my path 
I am the one who couldn't last 
I feel alive for the pain 
I feel the anger changing me 
 
Sometimes I can never tell 
If I got something there for me 
That's why I just hang in grief 
For this, cuz you're leaving 
 
Tell me, why am I to blame 
Aren't we, supposed to be the same 
That's why, I will never change 
This thing that's burning in me 
 
I am the one who chose my path 
I am the one who couldn't last 
I feel alive for the pain 
I feel the anger changing me 
 
Betrayed 
I feel so, enslaved 
I really tried 
I did my time 
 
I did my time x4 
 
I am the one who chose my path 
I am the one who couldn't last 
I feel alive for the pain 
I feel the anger changing me 
 
Oh god, the angers changing me x2 

	  

there isn't a video lesson for this song

request
Search Paypal
auto scroll beats size up size down change color hide chords drawings
tab show chords e-chords YouTube Clip e-chords hide all tabs e-chords go to top tab