Temas de Filmes

home > Temas de Filmes

Tema Missão Impossível Iniciante Tab

Temas de Filmes

Difficulty: nolevelnolevel

by yJessica

tuner correct add songbook print version text version save to e-mail
chordsukulelecavacokeyboardtabbassdrumsharmonicsflute Guitar Pro
chords

Tema Missão Impossível Iniciante

(yJessica)

	  
1° Parte 

e|--------------------|  
B|--------------------| 
G|--------------------| 
D|--------------------| 
A|-----1-3------------| 
E|-3-3-----3-3---1-2--| 


2° Parte 

e|-6-----6------6-----------|  
B|---8-----8------8---------| 
G|-----7-----6------5--3-5--| 
D|--------------------------| 
A|--------------------------| 
E|--------------------------| 


3° Parte 

e|---------------------------------|  
B|------7------6--------5--4-3-----| 
G|---------------------------------| 
D|-8--5---8--5-----8--5------------| 
A|---------------------------------| 
E|---------------------------------| 


4° Parte 

e|-11-------11-------11-------------------------|  
B|----13-------13-------13----------------------| 
G|-------12-------11-------10---8-10------------| 
D|----------------------------------------------| 
A|----------------------------------------------| 
E|----------------------------------------------| 
	  

there isn't a video lesson for this song

request
Search Paypal
auto scroll beats size up size down change color hide chords drawings
tab show chords e-chords YouTube Clip e-chords hide all tabs e-chords go to top tab