Temas de Filmes

home > Temas de Filmes

Stars Wars (ver. 2) Tab

Temas de Filmes

Difficulty: nolevelnolevel

by alcalde

tuner correct add songbook print version text version save to e-mail
chordsukulelecavacokeyboardtabbassdrumsharmonicsflute Guitar Pro
chords

Stars Wars (ver. 2)

	  E|---------------------------------|-------------------------------------| 
B|--------------------------11-----|----------11-------------------------| 
G|-------------10----8-7-------10~~|---8-7--------10~~---8-7-8-----------| 
D|----------8------------10--------|-------10--------------------10~~~~--| 
A|---8-8-8-------------------------|-------------------------------------| 
E|---------------------------------|-------------------------------------| 
 
E|---------------------------------------------|-----------------| 
B|---------------------------------------------|-----------------| 
G|------------8-7------------7-----------------|----8-7------10--| 
D|----------------10--8-8-10---10--------------|--------10-8-----| 
A|---8-10-10----------------------8-10-------8-|-8---------------| 
E|-------------------------------------11-11---|-----------------| 
 
E|-------------------------------------------------------------| 
B|------------------------------------11-9-8-------------------| 
G|------------8-7------------7---------------10-9-7--------10~~| 
D|----------------10--8-8-10---10-------------------10-8-------| 
A|---8-10-10----------------------8-8--------------------------| 
E|-------------------------------------------------------------| 

	  

Search Paypal
auto scroll beats size up size down change color hide chords drawings
tab show chords e-chords YouTube Clip e-chords hide all tabs e-chords go to top tab