Temas de Filmes

home > Temas de Filmes

Segundas Intensões Tab

Temas de Filmes

Difficulty: nolevelnolevel

tuner correct add songbook print version text version save to e-mail
chordsukulelecavacokeyboardtabbassdrumsharmonicsflute Guitar Pro
chords

Segundas Intensões

	  Every me every you-Placebo 
  
In the standard Placebo tuning (F Bb Eb Ab C C) 
  
{Verses} 
  
|-------------------------------------------------------------------| 
|-------------------------------------------------------------------| 
|-------------------------------------------------------------------| 
|--6-6-6-6-6-6-6-6-6-6-6-6-6-6-6-6-6-6-6-6-6-6-6-6-4-4-4-4-2-2-2-2--| 
|--4-4-4-4-4-4-4-4-0-0-0-0-2-2-2-2-4-4-4-4-4-0-0-0-0-0-0-0-0-0-0-0--| 
|-------------------------------------------------------------------| 
  
{Chorus} 
  
|-------------------------------------------------------------| 
|-------------------------------------------------------------| 
|-------------------------------------------------------------| 
|--2-2-2-2-2-2-2-2-2-2-2-2-4-4-4-4-4-4-4-4-4-2-2-2-2-2-2-2-2--| 
|--0-0-0-0-0-0-0-0-0-0-0-0-4-4-4-4-4-4-4-4-4-4-4-4-4-4-4-4-4--| 
|--------------------------2-2-2-2-2-2-2-2-2-2-2-2-2-2-2-2-2--| 
 
This changes when it goes "Every me and every you". 
 
|-------------------------------------------------------------| 
|-------------------------------------------------------------| 
|-------------------------------------------------------------| 
|--7-7-7-7-7-7-7-7-7-7-7-7-7-7-7-7-7-7-7-7-7-6-6-6-6-6-6-6-6--| 
|--7-7-7-7-7-7-7-7-7-7-7-7-7-7-7-7-7-7-7-7-7-6-6-6-6-6-6-6-6--| 
|--5-5-5-5-5-5-5-5-5-5-5-5-5-5-0-0-0-0-0-0-0-4-4-4-4-4-4-4-4--| 

	  

there isn't a video lesson for this song

request
Full key step upFull key step up
Half key step upHalf key step up
Half key step downHalf key step down
Full key step downFull key step down
Search Paypal
auto scroll beats size up size down change color hide chords drawings
tab show chords e-chords YouTube Clip e-chords hide all tabs e-chords go to top tab