Temas de Filmes

home > Temas de Filmes

Repo! The Genetic Opera The Genetic Opera - Zydrate Anatomy Tab

Temas de Filmes

Difficulty: nolevelnolevel

by LINEKERS

tuner correct add songbook print version text version save to e-mail
chordsukulelecavacokeyboardtabbassdrumsharmonicsflute Guitar Pro
chords

Repo! The Genetic Opera The Genetic Opera - Zydrate Anatomy

	  
I can't feel nothing at all.. 
Intro: 
e|---------------------------------------| 
B|---------------------------------------| 
G|---------------------------------------| 
D|33-3-3-433-3-3-433-3-3-433-3-3-433-----| 
A|33-3-3-433-3-3-433-3-3-433-3-3-433-----| 
D|33-3-3-433-3-3-433-3-3-433-3-3-433-----| 

Drug Market..(for the entire verse, you only play this once.) 
e|---------------------------| 
B|---------------------------| 
G|---------------------------| 
D|3--------------------------| 
A|3--------------------------| 
E|3--------------------------| 

*Zydrate comes in a little glass vial.. 
A *little glass vial? (A little glass vial) 
And the *little glass vial goes into the gun like a *battery(pant, pant) 
And the *Zydrate gun goes somewhere against your *anatomy (pant, pant) 
And when the *gun goes off, it sparks, and you're ready for *surgery 
e|---------| 
B|---------| 
G|---------| 
D|3-3------| 
A|3-3------| 
E|3-3------| 


Surgery.. 


*Graverobber..Graverobber (only play once this verse, and let ring. Slide up to 10 at  
second 'Graverobber') 
e|---------------------------| 
B|---------------------------| 
G|---------------------------| 
D|3-----/10------------------| 
A|3-----/10------------------| 
E|3-----/10------------------| 


And *Amber Sweet is addicted to the knife 
*Addicted to the knife? (Addicted to the knife) 
And *addicted to the knife, she needs a little help with the *agony (Agony!) 
And a *little help comes in a little glass vial, in a *gun pressed against her anatomy 
And when the *gun goes off, Miss Sweet is ready for *surgery 
e|---------| 
B|---------| 
G|---------| 
D|3-3------| 
A|3-3------| 
E|3-3------| 

Surgery.. 

Graverobber.. Graverobber.. 
e|---------------------------| 
B|---------------------------| 
G|---------------------------| 
D|3---------------/10--8-/10-| 
A|---------------------------| 
E|---------------------------| 

Break: 
(It's clean 
It's clear 
It's pure 
It's rare x6 
It's takes you there (x2) 
Before you cut 
A change inside 
I can't feel nothing at all 
Feel alive!) 

Mag's *contract's got some mighty fine print 
Some mighty fine print? (Some mighty... fine... print) 
And that *mighty fine print puts Mag in a mighty fine predicament 
If Mag *up and splits, her eyes are forfeit, And if *GeneCo and Rotti so will it 
Then a *Repo Man will come And she'll pay for that *surgery 
Sugery.. 
e|---------| 
B|---------| 
G|---------| 
D|3-3------| 
A|3-3------| 
E|3-3------| 

Surgery, Surgery (I can't feel nothing at all..) They say this approximately 12 times 

e|---------------------------------------| 
B|---------------------------------------| 
G|---------------------------------------| 
D|33-3-3-433-3-3-433-3-3-433-3-3-433-----| 
A|33-3-3-433-3-3-433-3-3-433-3-3-433-----| 
D|33-3-3-433-3-3-433-3-3-433-3-3-433-----| 

Repeat until end!  
	  

Full key step upFull key step up
Half key step upHalf key step up
Half key step downHalf key step down
Full key step downFull key step down
Search Paypal
auto scroll beats size up size down change color hide chords drawings
tab show chords e-chords YouTube Clip e-chords hide all tabs e-chords go to top tab