Temas de Filmes

home > Temas de Filmes

Pantera Cor-de-Rosa (ver. 2) Tab

Temas de Filmes

Difficulty: ExpertExpert

by The+crazy

tuner correct add songbook print version text version save to e-mail
chordsukulelecavacokeyboardtabbassdrumsharmonicsflute Guitar Pro
chords

Pantera Cor-de-Rosa (ver. 2)

	  e|---------------------------------|-------------| 
B|---------------------------------|-------------| 
G|---------------------------------|-------------| 
D|---------------------1-0-----0---|-0-----------| 
A|---------0-1x----0-1-------1---4-|---4-1-0-----| 
E|-0-1-2-3x----2-3---------3-------|---------2-3-| 
 
e|----------1/3-1---------------------------------| 
B|----------------3---1---2/1-2/1-2/1-2/1---------| 
G|------------------3---3-----------------3/0---0-| 
D|--------------------------------------------3---| 
A|------------------------------------------------| 
E|-0-1-2-3X---------------------------------------| 

	  

there isn't a video lesson for this song

request
Search Paypal
auto scroll beats size up size down change color hide chords drawings
tab show chords e-chords YouTube Clip e-chords hide all tabs e-chords go to top tab