Temas de Filmes

home > Temas de Filmes

O Poderoso Chef„o (ver. 2) Tab

Temas de Filmes

Difficulty: BeginnerBeginner

by P%21ATD

tuner correct add songbook print version text version save to e-mail
chordsukulelecavacokeyboardtabbassdrumsharmonicsflute Guitar Pro
chords

O Poderoso Chef„o (ver. 2)

	  |--9-12-11-9-12-9-11--9---------------9-12-11-9-12-9-11-9----------| 
|-9---------------------10-12-9-----9---------------------9-8-7----| 
|------------------------------------------------------------------| 
|------------------------------------------------------------------| 
|------------------------------------------------------------------| 
|------------------------------------------------------------------| 

|------8-11-------8-9---------------------------8-9-----9-9-9-8-7--| 
|-7-10-------7-10----------12-10-9-12-10-10-9-9--------------------| 
|------------------------9-----------------------------------------| 
|---------------------11-------------------------------------------| 
|------------------------------------------------------------------| 
|------------------------------------------------------------------| 

|-11-11-9-------------------------8-9--| 
|---------10-9---9-12-9-7----7-10------| 
|--------------------------------------| 
|--------------------------------------|  Repetir essa parte 2 vezes 
|--------------------------------------| 
|--------------------------------------|
	  

there isn't a video lesson for this song

request
Search Paypal
auto scroll beats size up size down change color hide chords drawings
tab show chords e-chords YouTube Clip e-chords hide all tabs e-chords go to top tab