Temas de Filmes

home > Temas de Filmes

Missão Impossível (ver.3) Tab

Temas de Filmes

Difficulty: nolevelnolevel

by Brenda+Palhares

tuner correct add songbook print version text version save to e-mail
chordsukulelecavacokeyboardtabbassdrumsharmonicsflute Guitar Pro
chords

Missão Impossível (ver.3)

	  E|----------------------------------- 
B|----------------------------------- 
G|----------------------------------- 
D|----------------------------------- 
A|-----1-3--------------1-3---------- 
E|-3-3-----3-3-1-2--3-3-----3-3-1-2-- 
 
E|-18-15---18-15---18-15------------- 
B|------15--------------------------- 
G|--------------18------17--15-17---- 
D|----------------------------------- 
A|----------------------------------- 
E|----------------------------------- 
 
E|-----14-----13-----12--11-10------- 
B|---15-----15-----15---------------- 
G|-12-----12-----12------------------ 
D|----------------------------------- 
A|----------------------------------- 
E|----------------------------------- 
 
E|-10-8---10-8----10-8--------------- 
B|------7------10------9--7-9-------- 
G|----------------------------------- 
D|----------------------------------- 
A|----------------------------------- 
E|----------------------------------- 
 

	  

there isn't a video lesson for this song

request
Search Paypal
auto scroll beats size up size down change color hide chords drawings
tab show chords e-chords YouTube Clip e-chords hide all tabs e-chords go to top tab