Temas de Filmes

home > Temas de Filmes

Missao imposivel Tab

Temas de Filmes

Difficulty: BeginnerBeginner

by noiadojose

tuner correct add songbook print version text version save to e-mail
chordsukulelecavacokeyboardtabbassdrumsharmonicsflute Guitar Pro
chords

Missao imposivel

	   
e|------------------------ 
b|------------------------ 
g|------------------------  <- 2x 
d|------------------------ 
a|-----1-3---------------- 
E|-3-3----3-3-----1-2-3-3- 
 
 
e|-------------------| 
b|-------------------| 
g|-------------------| 
d|-------------------| 
a|-----1-3-----------| 
E|-3-3----3-3----1-2-| 
 
e|--6-----6-----6--------- 
b|---7-----7-----7-------- 
g|----6-----5-----6----3-5 
d|------------------------ 
a|------------------------ 
E|------------------------ 

	  

there isn't a video lesson for this song

request
Search Paypal
auto scroll beats size up size down change color hide chords drawings
tab show chords e-chords YouTube Clip e-chords hide all tabs e-chords go to top tab