Temas de Filmes

home > Temas de Filmes

Mario bros music Tab

Temas de Filmes

Difficulty: BeginnerBeginner

by europeu

tuner correct add songbook print version text version save to e-mail
chordsukulelecavacokeyboardtabbassdrumsharmonicsflute Guitar Pro
chords

Mario bros music

	  -------------3------------------------------ 
--5-5-5----5-------------------------------- 
---------5-----0---------------------------- 
-------------------------------------------- 
-------------------------------------------- 
-------------------------------------------- 
 
-------------------------------------------- 
---5-----6-6-0---0-6-6-6-5-3-1-------------- 
-5---0-2-----------------------0-2-0-------- 
-------------------------------------------- 
-------------------------------------------- 
-------------------------------------------- 
 
And this is repeated a lot. It's very funny. 
 
Another riff goes like this 
---------------------3-5-1-3-0-------------- 
-------------------------------------------- 
-5-0----2-4-2-2--0-5------------5-7-4------- 
-----2-------------------------------------- 
-------------------------------------------- 
-------------------------------------------- 
Also very repited 

	  

there isn't a video lesson for this song

request
Search Paypal
auto scroll beats size up size down change color hide chords drawings
tab show chords e-chords YouTube Clip e-chords hide all tabs e-chords go to top tab