Temas de Filmes

home > Temas de Filmes

Inspector Gadget Theme Song Tab

Temas de Filmes

Difficulty: BeginnerBeginner

by suakenga

tuner correct add songbook print version text version save to e-mail
chordsukulelecavacokeyboardtabbassdrumsharmonicsflute Guitar Pro
chords

Inspector Gadget Theme Song

	  é mais ou menos assim: 

e----------------------------------------- 
H----------------------------------------- 
G----------------------------------------- 
D----------0--2----1---0------------------ 
A--0--2--3------3----2---3---------------- 
E----------------------------------------- 


e----------------------------------------- 
H----------------------------------------- 
G-----------------2--1-------------------- 
D----------0--2--------------------------- 
A--0--2--3-------------------------------- 
E----------------------------------------- 


e----------------------------------------- 
H----------------------------------------- 
G----------------------------------------- 
D----------0--2----1---0------------------ 
A--0--2--3------3----2---3---------------- 
E----------------------------------------- 


e----------------------------------------- 
H----------------------------------------- 
G-----------------2--4-------------------- 
D----------0--2--------------------------- 
A--0--2--3-------------------------------- 
E----------------------------------------- 

e----------------------------------------- 
H----------------------------------------- 
G----------------------------------------- 
D----------0--2----1---0------------------ 
A--0--2--3------3----2---3---------------- 
E----------------------------------------- 

e----------------------------------------- 
H----------------------------------------- 
G-----------------2--1-------------------- 
D----------0--2--------------------------- 
A--0--2--3-------------------------------- 
E----------------------------------------- 

e----------------------------------------- 
H----------------------------------------- 
G----------------------------------------- 
D----------0--2----1---0------------------ 
A--0--2--3------3----2---3---------------- 
E----------------------------------------- 


e--------------------- 
H--------------------- 
G--------------------- 
D--------------------- 
A--------------------- 
E--5--4--3--2---1----- 


e---------------------- 
H---------------------- 
G-----2---------------- 
D--2--2---------------- 
A--2--0---------------- 
E--0------------------- 

divirtam-se! ;D 

suakenga 

	  

there isn't a video lesson for this song

request
Search Paypal
auto scroll beats size up size down change color hide chords drawings
tab show chords e-chords YouTube Clip e-chords hide all tabs e-chords go to top tab