Temas de Filmes

home > Temas de Filmes

Hulk (Set Me Free) Tab

Temas de Filmes

Difficulty: ExpertExpert

tuner correct add songbook print version text version save to e-mail
chordsukulelecavacokeyboardtabbassdrumsharmonicsflute Guitar Pro
chords

Hulk (Set Me Free)

	  VELVET REVOLVER 
SET ME FREE 
 
Guitarra 1: 
 
|-------------------------------------------------------------------------- 
|--x--x-x--x----4r3-------------------------------------------------------- 
|--x--x-x--x--------5---5-5---6-5------------------------------------------ 
|--x--x-x--x-------------------------4-5-6--------------------------------- 
|--x--x-x--x--------------------------------------------------------------- 
|-------------------------------------------------------------------------- 
 
Guitarra 2: 
 
|---------------------------------------------------------------------------- 
|---------------------------------------------------------------------------- 
|-2\/\/\/\/\/\/\------------------------------------------------------------- 
|-2/\/\/\/\/\/\/------------------------------------------------------------- 
|-0/\/\/\/\/\/\/------------------------------------------------------------- 
|---------------------------------------------------------------------------- 
 
 
Riff: 
 
|---------------------------------------------------------------------------- 
|---------------------------------------------------------------------------- 
|---------------------------------------------------------------------------- 
|-2-2--5-5--7-7--5-5--2-2--5-5--8--7--5--2-2--------------------------------- 
|-0-0--3-3--5-5--3-3--0-0--3-3--6--5--3--0-0--------------------------------- 
|---------------------------------------------------------------------------- 
 
 
Refrão: 
 
|---------------------------------------------------------------------------- 
|-3\/\/\/-------------------------------------------------------------------- 
|-2\/\/\/-3\/\/\/\/\--5\/\/\/\/---------------------------------------------- 
|-0\/\/\/-3\/\/\/\/\/-5\/\/\/\--5\/\/\/\/------------------------------------ 
|-0/\/\/\-1/\/\/\/\/--3/\/\/\/--5\/\/\/\/------------------------------------ 
|-x-----------------------------3\/\/\/\/------------------------------------ 
 
 
so set me free,....   
 
 
|---------------------------------------------------------------------------- 
|-3\/\/\/\/------------------------------------------------------------------ 
|-2\/\/\/\/-3\/\/\/\/\/-5\/\/\/\/---5\/\/\/\/\/------------------------------ 
|-0\/\/\/\/-3\/\/\/\/\/-5\/\/\/\/---5\/\/\/\/\/------------------------------ 
|-0\/\/\/\/-1/\/\/\/\/\-3/\/\/\/\---3\/\/\/\/\/------------------------------ 
|-x-------------------------------------------------------------------------- 
 
...set me free............ 
 
 
 
Bridge: 
 
 
|---------------------------------------------------------------------------- 
|---------------------------------------------------------------------------- 
|------------------------------2/\/\/---------------------------------------- 
|-3-----2-----5--5-5-5---3--2--2\/\/\---------------------------------------- 
|-3-----2-----5--5-5-5---3--2--0\/\/\---------------------------------------- 
|-1-----0-----3--3-3-3---1--0------------------------------------------------ 
 
so take me down............ 
 
 
 
 
VELVET REVOLVER  
 
Set Me Free 
(Scott Weiland) 
 
You operate and motivate on synthetic fuel 
You're mother nature and an atom bomb 
As long as you're kept full of pretty bodies 
Your little secret will be safe with me 
 
Around again 
Insane again 
It comes again 
And sets me free 
 
 
Refrão 
So set me free, set me free 
'Cause I think you need my soul 
Set me free, set me free 
 
You kept a lock and pulled a rise and fall 
I'm thinking mama never lies 
And everything that you see 
But now I did it all, I did a little 
I wanna take you down with me 
 
Around again 
Insane again 
She comes again 
And sets me free 
 
Refrão 2x 
So set me free, set me free 
'Cause I think you need my soul 
Set me free, set me free 
 
Bridge x2 
So take me down 
Take me, down, down, down, down 
Take me down, take me down 
 
Refrão 4x 
So set me free, set me free 
'Cause I think you need my soul 
Set me free, set me free 
 
My Freedom 
	  

there isn't a video lesson for this song

request
Search Paypal
auto scroll beats size up size down change color hide chords drawings
tab show chords e-chords YouTube Clip e-chords hide all tabs e-chords go to top tab