Temas de Filmes

home > Temas de Filmes

Hardly Wait (the Strange Days) Tab

Temas de Filmes

Difficulty: nolevelnolevel

by jih4d

tuner correct add songbook print version text version save to e-mail
chordsukulelecavacokeyboardtabbassdrumsharmonicsflute Guitar Pro
chords

Hardly Wait (the Strange Days)

(P. J. Harvey)

	  (As performed by: Juliette Lewis on the Strange Days soundtrack) 
 
(G D Bb Dm) 
(G D Bb F ) 
 
part 1: 
(clean) 
-----------------------------------------------1---1--1--- 
-----------------4----4--3--3------------------3---3--3--- 
-----------------3----3--2--2---3---3--33--3---2---2--2--- 
---5---5--5--5---0h1--1--0--0---3---3--33--3---0---0--0--- 
---5---5--5--5------------------1---1--11--1-------------- 
---3---3--3--3-------------------------------------------- 
 
part 2: 
(distorted) 
------------------------------------------------------------ 
------------------------------------------------------------ 
-----------------7---7--7--7---3---3--3---3----------------- 
---5---5--5--5---7---7--7--7---3---3--3---3---3---3--3--3--- 
---5---5--5--5---5---5--5--5---1---1--1---1---3---3--3--3--- 
---3---3--3--3--------------------------------1---1--1--1--- 
 
 
 
(play part 1) 
I can hardly wait. 
I can hardly wait. 
I can hardly wait. 
I can hardly wait. 
 
(play part 2) 
It's been so long 
I've lost my taste 
say, 'Angel come" 
said, 'Lick my face" 
lift all your drapes 
I'll play the part 
I'll open this mouth wide 
eat your heart 
 
(part 1) 
ah...your heart... 
I can hardly wait. 
I can hardly wait. 
I can hardly wait. 
I can hardly wait. 
 
(part 2) 
Lips crack dry 
tongue blue burns 
said, "Angel come" 
said, "Lick my thirst" 
It's been so long 
I've lost my taste 
you run me around 
make my water break 
 
(part 1) 
oh...oh... 
In my glass coffin I am waiting. 
In my glass coffin I am waiting. 
In my glass coffin I am waiting. 
In my glass coffin I am waiting. 
 
(part 2) 
In my glass coffin I am waiting. 
In my glass coffin I am waiting. 
In my glass coffin I am waiting. 
In my glass coffin I am waiting. 
 
email: [email protected] 
	  

Full key step upFull key step up
Half key step upHalf key step up
Half key step downHalf key step down
Full key step downFull key step down
Search Paypal
auto scroll beats size up size down change color hide chords drawings
tab show chords e-chords YouTube Clip e-chords hide all tabs e-chords go to top tab