Temas de Filmes

home > Temas de Filmes

Happy Tree Friends Tab

Temas de Filmes

Difficulty: BeginnerBeginner

by abelamin

tuner correct add songbook print version text version save to e-mail
chordsukulelecavacokeyboardtabbassdrumsharmonicsflute Guitar Pro
chords

Happy Tree Friends

	  (Guitarra 1) 
e|---------------------------------------| 
B|---------------------------------------| 
g|---------------------------------------| 
D|---------------------------------------| 
A|-0---0---0---0-1-2-2-------------------| 
E|---0---0---0---------3-0-3-0-3-0-3-3-4-| 

(Guitarra 2)Riff 1 
e|------------| 
B|-55---555-7-| 
G|----6-------| x 4 
D|------------| 
A|------------| 
E|------------| 

(Guitarra 2) Riff 2 
e|---------------------------------------------| 
B|-5-5-55-3-2-55-55-3-2---3-3-33-2-0-33-33-2-0-| 
G|---------------------------------------------| 
D|---------------------------------------------| x 4 
A|---------------------------------------------| 
E|---------------------------------------------| 

the last time you play it like this: 
e-------------------------------------------------------------- 
B-5-5-55-3-2-55-55-3-2---3-3-33-2-0-33-33-2-0-3/5*let it ring-- 
G-------------------------------------------------------------- 
D-------------------------------------------------------------- 
A-------------------------------------------------------------- 
E-------------------------------------------------------------- 


| /  slide up 
| \  slide down 
| h  hammer-on 
| p  pull-off 
| ~  vibrato 
| +  harmonic 
| x  Mute note 
=============================================================================== 
	  

there isn't a video lesson for this song

request
Search Paypal
auto scroll beats size up size down change color hide chords drawings
tab show chords e-chords YouTube Clip e-chords hide all tabs e-chords go to top tab