Temas de Filmes

home > Temas de Filmes

Eu Vou (sete Anões) Tab

Temas de Filmes

Difficulty: nolevelnolevel

by tercmoraes

tuner correct add songbook print version text version save to e-mail
chordsukulelecavacokeyboardtabbassdrumsharmonicsflute Guitar Pro
chords

Eu Vou (sete Anões)

	   
E|--------------------7----------| 
B|----6---5------6-8-----8--6--5-| 
G|--5-------7--------------------| 
A|-------------------------------| 
 
Eu vou, Eu vou, para casa agora eu vou 

 
E|--------------------7----------| 
B|----6---5------6-8-----8--6--5-| 
G|--5-------7--------------------| 
A|-------------------------------| 
 
Eu vou, Eu vou, para casa agora eu vou 

E|-------------------------------| 
B|-----------4-------------------| 
G|--5-5--7--------5--------------| 
A|-------------------------------| 
Parara-tim-bum 
E|-------------------------------| 
B|-----------4-------------------| 
G|--5-5--7--------7--------------| 
A|-------------------------------| 
Parara tibum 

 
E|-------------------------------| 
B|---10--8---------6---5---------| 
G|-------------------------------| 
A|-------------------------------| 
 
Eu vou, eu vou 
	  

there isn't a video lesson for this song

request
Search Paypal
auto scroll beats size up size down change color hide chords drawings
tab show chords e-chords YouTube Clip e-chords hide all tabs e-chords go to top tab