Temas de Filmes

home > Temas de Filmes

Archive Level - Goldeneye - 007 Tab

Temas de Filmes

Difficulty: nolevelnolevel

by julidinamica

tuner correct add songbook print version text version save to e-mail
chordsukulelecavacokeyboardtabbassdrumsharmonicsflute Guitar Pro
chords

Archive Level - Goldeneye - 007

  		e|--7--7-----------------8--8--------------- 
B|--------8--8-----------------8--8--------- 
G|--------------9--9-----------------9--9--- 
D|------------------------------------------ 
A|------------------------------------------ 
E|------------------------------------------ 

e|--9--9-----------------8--8-------------- 
B|--------8--8-----------------8--8-------- 
G|--------------9--9-----------------9--9-- 
D|----------------------------------------- 
A|----------------------------------------- 
E|----------------------------------------- x2 

e|-------------------------------------------- 
B|-------------------------------------------- 
G|--9--11--11--11---9-----9--12--12--12---11-- 
D|-------------------------------------------- 
A|-------------------------------------------- 
E|-------------------------------------------- x2 

e|------------------------------- 
B|------------------------------- 
G|------------------------------- 
D|------------------------------- 
A|--7-9-11---7-9-10--9-10-----9-- 
E|------------------------------- 

e|---------------------------------------------------------- 
B|---------------------------------------------------------- 
G|-----------8--7------------------------------------------- 
D|------------------------8--9------------------------------ 
A|--7---10------------10----------------10---12p10-9-----7-- 
E|---------------------------------------------------------- 

e|----------------------------------------------------------------- 
B|----------------------------------------------------------------- 
G|-----------8--7-------------------------------------------------- 
D|------------------------8--9------------------------------------- 
A|--7---10------------10----------------10---12p10-9--------6---7-- 
E|-------------------------------------------------------7--------- 
	  

Search Paypal
auto scroll beats size up size down change color hide chords drawings
tab show chords e-chords YouTube Clip e-chords hide all tabs e-chords go to top tab