Temas de Filmes

home > Temas de Filmes

A Família Addams Tab

Temas de Filmes

Difficulty: BeginnerBeginner

by felipemontero

tuner correct add songbook print version text version save to e-mail
chordsukulelecavacokeyboardtabbassdrumsharmonicsflute Guitar Pro
chords

A Família Addams

	  D|-------------------------------------------- 
A|---0-2-3--0-2-4-5--0-2-4-5-0-2-4-5---0-2-3-- 
E|-3---------------------------------3-------- 

D|-----2----------------------------2---------- 
A|---3--3-2---5----2-5-2-0---3----3---3-2---5-- 
E|-3--------5----3---------3----3---------5---- 

D|---------------- 
A|-0-------0-2-3-- 
E|---3-3-3-------- 
	  

there isn't a video lesson for this song

request
Search Paypal
auto scroll beats size up size down change color hide chords drawings
tab show chords e-chords YouTube Clip e-chords hide all tabs e-chords go to top tab