Television

El Chavo Del 8

Television

tabs

save to print version add songbook text version e-mail correct tuner
chordsukulelecavacokeyboardtabbassdrumsharmonicaflute Guitar Pro
close

there isn't a video lesson for this song

chords

El Chavo Del 8

(television)

	  		e-3-0-0-0--3-0-0----12-10-8-7-5-3-1-0-1-3-(3)------------------------- 
b--------------------------------------------------------------------- 
g--------------------------------------------------------------------- 
D--------------------------------------------------------------------- 
A--------------------------------------------------------------------- 
E--------------------------------------------------------------------- 



e-3-0-0-0--3-0-0----12-10-8-7-5-3--4-5-(5)----------------------------- 
b---------------------------------------------------------------------- 
g---------------------------------------------------------------------- 
D---------------------------------------------------------------------- 
A---------------------------------------------------------------------- 
E---------------------------------------------------------------------- 



e-7-5-5-5--10-7-7-7--10-7-10-7--12-8-8-8------------------------------- 
b---------------------------------------------------------------------- 
g---------------------------------------------------------------------- 
D---------------------------------------------------------------------- 
A---------------------------------------------------------------------- 
E---------------------------------------------------------------------- 



e-3-0-0-0--3-0-0--12-10-8-7-5-3---------------------------------------- 
b---------------------------------------------------------------------- 
g---------------------------------------------------------------------- 
D---------------------------------------------------------------------- 
A---------------------------------------------------------------------- 
E---------------------------------------------------------------------- 


este e o final  


e-10-8--(8)---  este: 1e-7-8--(8)------------------------------------- 
b---------------------------------------------------------------------- 
g---------------------------------------------------------------------- 
D---------------------------------------------------------------------- 
A---------------------------------------------------------------------- 
E---------------------------------------------------------------------- 
		  

auto scroll beats size up size down change color hide chords drawings
tab show chords e-chords YouTube Clip e-chords hide all tabs e-chords go to top tab

share