Television

Aint That Nothin

Television

tabs

by  ALEFFEDERICO

save to print version add songbook text version e-mail correct tuner
chordsukulelecavacokeyboardtabbassdrumsharmonicaflute Guitar Pro
close

there isn't a video lesson for this song

chords

Aint That Nothin

	  		



Intro: 
Guitar I (Tom Verlaine) 
e|---------------------------------------------| 
B|---------------------------------------------| 
G|---------------------------------------------| 
D|---------------------------------------------| 
A|---------------------------------------------| 
E|-3-----------3--3--------3-----------3--3----| 
+ 
e|------------------------------------------------|| 
B|------------------------------------------------|| 
G|------------------------------------------------|| x 3 
D|------------------------------------------------|| 
A|------------------------------------------------|| 
E|----3-----------3--3--------3-----------3--3----|| 



Intro: 
Guitar II (Richard Lloyd) 
e|---------------------------------------------| 
B|---------------------------------------------| 
G|---------------------------------------------| 
D|---------------------------------------------| 
A|---------------------------------------------| 
E|---------------------------------------------| 
+ 
e|------------------------------------------------| 
B|------------------------------------------------| 
G|------------------------------------------------| 
D|------------------------------------------------| 
A|------------------------------------------------| 
E|------------------------------------------------| 
+ 
e|-3--3-------------------------------------------| 
B|-3--3-----8-----10----12------------------------| 
G|-4--4-----9-----10----12------------------------| 
D|-5--5-----10----10----12------------------------| 
A|-5--5-----10----8-----10------------------------| 
E|------------------------------------------------| 
+ 
e|------------------------------------------------| 
B|-12-12----10----8-----10------------------------| 
G|-12-12----10----9-----10------------------------| 
D|-12-12----10----10----10------------------------| 
A|-10-10----8-----10----8-------------------------| 
E|------------------------------------------------| 



VERSE I: 
Guitar I 
e|------------------------------------------------|| 
B|------------------------------------------------|| 
G|------------------------------------------------|| x 8 
D|------------------------------------------------|| 
A|------------------------------------------------|| 
E|----3-----------3--3--------3-----------3--3----|| 
+ 
e|------------------------------------------------| 
B|------------------------------------------------| 
G|------------------------------------------------| 
D|------------------------------------------------| 
A|------------------------------------------------| 
E|----5-----------5--5--------5-----------5--5----| 
+ 
e|------------------------------------------------| 
B|------------------------------------------------| 
G|------------------------------------------------| 
D|------------------------------------------------| 
A|------------------------------------------------| 
E|----5-----------5--5--------3-----------3--3----| 



VERSE I: 
Guitar II 
e|-3--3-------------------------------------------| 
B|-3--3-----8-----10----12------------------------| 
G|-4--4-----9-----10----12------------------------| 
D|-5--5-----10----10----12------------------------| 
A|-5--5-----10----8-----10------------------------| 
E|------------------------------------------------| 
+ 
e|------------------------------------------------| 
B|-12-12----10----8-----12------------------------| 
G|-12-12----10----9-----12------------------------| 
D|-12-12----10----10----12------------------------| 
A|-10-10----8-----10----10------------------------| 
E|------------------------------------------------| 
+ 
e|-3--3-------------------------------------------| 
B|-3--3-----8-----10----12------------------------| 
G|-4--4-----9-----10----12------------------------| 
D|-5--5-----10----10----12------------------------| 
A|-5--5-----10----8-----10------------------------| 
E|------------------------------------------------| 
+ 
e|------------------------------------------------| 
B|-12-12----10----8-----10------------------------| 
G|-12-12----10----9-----10------------------------| 
D|-12-12----10----10----10------------------------| 
A|-10-10----8-----10----8-------------------------| 
E|------------------------------------------------| 
+ 
e|-3--3-------------------------------------------| 
B|-3--3-----8-----10----12------------------------| 
G|-4--4-----9-----10----12------------------------| 
D|-5--5-----10----10----12------------------------| 
A|-5--5-----10----8-----10------------------------| 
E|------------------------------------------------| 
+ 
e|------------------------------------------------| 
B|-12-12----10----8-----12------------------------| 
G|-12-12----10----9-----12------------------------| 
D|-12-12----10----10----12------------------------| 
A|-10-10----8-----10----10------------------------| 
E|------------------------------------------------| 
+ 
e|-3--3-------------------------------------------| 
B|-3--3-----8-----10----12------------------------| 
G|-4--4-----9-----10----12------------------------| 
D|-5--5-----10----10----12------------------------| 
A|-5--5-----10----8-----10------------------------| 
E|------------------------------------------------| 
+ 
e|------------------------------------------------| 
B|-12-12----10----8-----10------------------------| 
G|-12-12----10----9-----10------------------------| 
D|-12-12----10----10----10------------------------| 
A|-10-10----8-----10----8-------------------------| 
E|------------------------------------------------| 
+ 
e|----------5-----3-------------------------------| 
B|-10-10----5-----3-----10------------------------| 
G|-10-10----5-----4-----10------------------------| 
D|-10-10----7-----5-----10------------------------| 
A|-8--8-----7-----5-----8-------------------------| 
E|------------------------------------------------| 
+ 
e|----------5-----3-------------------------------| 
B|-10-10----5-----3-----12------------------------| 
G|-10-10----5-----4-----12------------------------| 
D|-10-10----7-----5-----12------------------------| 
A|-8--8-----7-----5-----10------------------------| 
E|------------------------------------------------| 



Chorus: 
Guitar I 
e|------------------------------------------------|| 
B|----------10----8--------10-------8-----10------|| 
G|----------10----9--------10-------9-----10------|| x 3 
D|----------10----10-------10-------10----10------|| 
A|----------8-----10-------8--------10----8-------|| 
E|-3-/8-------------------------------------------|| 
+ 
e|---------------------------------------------| 
B|----------10----8--------10-------8-----10---| 
G|----------10----9--------10-------9-----10---| 
D|----------10----10-------10-------10----10---| 
A|----------8-----10-------8--------10----8----| 
E|-3-/8----------------------------------------| 



Chorus: 
Guitar II 
e|------------------------------------------------| 
B|------------------------------------------------| 
G|-------5--5--5--5--5--5--5--5--5--5--5--5--5--5-| 
D|------------------------------------------------| 
A|------------------------------------------------| 
E|------------------------------------------------| 
+ 
e|------------------------------------------------|| 
B|------------------------------------------------|| 
G|-5--5--5--5--5--5--5--5--5--5--5--5--5--5--5--5-|| x 2 
D|------------------------------------------------|| 
A|------------------------------------------------|| 
E|------------------------------------------------|| 
+ 
e|------------------------------------------------| 
B|----------------------------------------------8\| 
G|-5--5--5--5--5--5--5--5--5--5--5--5--5--5--5--7\| 
D|------------------------------------------------| 
A|------------------------------------------------| 
E|------------------------------------------------| 



INTERLUDE: 
Guitar I (Tom Verlaine) 
e|---------------------------------------------| 
B|---------------------------------------------| 
G|---------------------------------------------| 
D|---------------------------------------------| 
A|---------------------------------------------| 
E|-3-----------3--3--------3-----------3--3----| 
+ 
e|------------------------------------------------|| 
B|------------------------------------------------|| 
G|------------------------------------------------|| x 2 
D|------------------------------------------------|| 
A|------------------------------------------------|| 
E|----3-----------3--3--------3-----------3--3----|| 



INTERLUDE: 
Guitar II (Richard Lloyd) 
e|---------------------------------------------| 
B|---------------------------------------------| 
G|---------------------------------------------| 
D|---------------------------------------------| 
A|---------------------------------------------| 
E|---------------------------------------------| 
+ 
e|-3--3-------------------------------------------| 
B|-3--3-----8-----10----12------------------------| 
G|-4--4-----9-----10----12------------------------| 
D|-5--5-----10----10----12------------------------| 
A|-5--5-----10----8-----10------------------------| 
E|------------------------------------------------| 
+ 
e|------------------------------------------------| 
B|-12-12----10----8-----10------------------------| 
G|-12-12----10----9-----10------------------------| 
D|-12-12----10----10----10------------------------| 
A|-10-10----8-----10----8-------------------------| 
E|------------------------------------------------| 



VERSE II: 
Guitar I 
e|------------------------------------------------|| 
B|------------------------------------------------|| 
G|------------------------------------------------|| x 4 
D|------------------------------------------------|| 
A|------------------------------------------------|| 
E|----3-----------3--3--------3-----------3--3----|| 
+ 
e|------------------------------------------------| 
B|------------------------------------------------| 
G|------------------------------------------------| 
D|------------------------------------------------| 
A|------------------------------------------------| 
E|----5-----------5--5--------5-----------5--5----| 
+ 
e|------------------------------------------------| 
B|------------------------------------------------| 
G|------------------------------------------------| 
D|------------------------------------------------| 
A|------------------------------------------------| 
E|----5-----------5--5--------3-----------3--3----| 



VERSE II: 
Guitar II 
e|-3--3-------------------------------------------| 
B|-3--3-----8-----10----12------------------------| 
G|-4--4-----9-----10----12------------------------| 
D|-5--5-----10----10----12------------------------| 
A|-5--5-----10----8-----10------------------------| 
E|------------------------------------------------| 
+ 
e|------------------------------------------------| 
B|-12-12----10----8-----12------------------------| 
G|-12-12----10----9-----12------------------------| 
D|-12-12----10----10----12------------------------| 
A|-10-10----8-----10----10------------------------| 
E|------------------------------------------------| 
+ 
e|-3--3-------------------------------------------| 
B|-3--3-----8-----10----12------------------------| 
G|-4--4-----9-----10----12------------------------| 
D|-5--5-----10----10----12------------------------| 
A|-5--5-----10----8-----10------------------------| 
E|------------------------------------------------| 
+ 
e|------------------------------------------------| 
B|-12-12----10----8-----10------------------------| 
G|-12-12----10----9-----10------------------------| 
D|-12-12----10----10----10------------------------| 
A|-10-10----8-----10----8-------------------------| 
E|------------------------------------------------| 
+ 
e|----------5-----3-------------------------------| 
B|-10-10----5-----3-----10------------------------| 
G|-10-10----5-----4-----10------------------------| 
D|-10-10----7-----5-----10------------------------| 
A|-8--8-----7-----5-----8-------------------------| 
E|------------------------------------------------| 
+ 
e|----------5-----3-------------------------------| 
B|-10-10----5-----3-----12------------------------| 
G|-10-10----5-----4-----12------------------------| 
D|-10-10----7-----5-----12------------------------| 
A|-8--8-----7-----5-----10------------------------| 
E|------------------------------------------------| 



Bridge: 
Guitar I 
e|------------------------------------------------|| 
B|------------------------------------------------|| 
G|-10-------10-10-10-------10-------10-10-10------|| x 3 
D|-12-------12-10-12-------12-------12-10-12------|| 
A|-12-------12-10-12-------12-------12-10-12------|| 
E|-10-------10-10-10-------10-------10-10-10------|| 
+ 
e|-1-----------------------1----------------------|| 
B|-1-----------------------1----------------------|| 
G|-2-----------------------2----------------------|| x 2 
D|-3-----------------------3----------------------|| 
A|-3-----------------------3----------------------|| 
E|-1-----------------------1----------------------|| 



BRIDGE SOLO (3 Bars in Dm and 2 Bars in F): 
Guitar II 
e|------------------------------------------------|| 
B|------------------------------------------------|| 
G|-Improvise--------------------------------------|| x 5 
D|------------------------------------------------|| 
A|------------------------------------------------|| 
E|------------------------------------------------|| 



OUTRO: 
Guitar I 
e|-3--3--------3--------3--------3--------------1-| 
B|-3-----3--------3-----------------0--------1----| 
G|-0--------0--------0--------0-----------2h3-----| 
D|-0----------------------------------------------| 
A|-2-----------------------------------3----------| 
E|-3----------------------------------------------| 
+ 
e|-3-----3-----3--------3--------3--------------1-|| 
B|-3--------------3-----------------0--------1----|| 
G|-0--------0--------0--------0-----------2h3-----|| x 2 
D|-0----------------------------------------------|| 
A|-2-----------------------------------3----------|| 
E|-3----------------------------------------------|| 
+ 
e|-3-----3-----3--------3--------3--------------1-| 
B|-3--------------3-----------------0--------1----| 
G|-0--------0--------0--------0-----------2-------| 
D|-0----------------------------------------------| 
A|-2-----------------------------------3----------| 
E|-3----------------------------------------------| 
+ 
e|------------------------------------------------| 
B|------------------------------------------------| 
G|-4-----------------------------------2-----2----| 
D|-5-----------------------------------3-----3----| 
A|-5-----------------------------------3-----3----| 
E|-3-----------------------------------1-----1----| 
+ 
e|------------------------------------------------| 
B|-------------------------------------1-----1----| 
G|-4-----------------------------------0-----0----| 
D|-5-----------------------------------2-----2----| 
A|-5-----------------------------------3-----3----| 
E|-3----------------------------------------------| 
+ 
e|------------------------------------------------| 
B|------------------------------------------------| 
G|-4-----------------------------------2----------| 
D|-5-----------------------------------3----------| 
A|-5-----------------------------------3----------| 
E|-3-----------------------------------1----------| 
+ 
e|------------------------------------------------| 
B|-------------------------------------1-----1----| 
G|-4-----------------------------------0-----0----| 
D|-5-----------------------------------2-----2----| 
A|-5-----------------------------------3-----3----| 
E|-3----------------------------------------------| 
+ 
e|------------------------------------------------| 
B|------------------------------------------------| 
G|-4-----------------------------------2----------| 
D|-5-----------------------------------3----------| 
A|-5-----------------------------------3----------| 
E|-3-----------------------------------1----------| 
+ 
e|------------------------------------------------| 
B|-------------------------------------1-----1----| 
G|-4-----------------------------------0-----0----| 
D|-5-----------------------------------2-----2----| 
A|-5-----------------------------------3-----3----| 
E|-3----------------------------------------------| 
+ 
e|------------------------------------------------| 
B|------------------------------------------------| 
G|-4-----------------------------------2-----2----| 
D|-5-----------------------------------3-----3----| 
A|-5-----------------------------------3-----3----| 
E|-3-----------------------------------1-----1----| 
+ 
e|------------------------------------------------| 
B|-------------------------------------1-----1----| 
G|-4-----------------------------------0-----0----| 
D|-5-----------------------------------2-----2----| 
A|-5-----------------------------------3-----3----| 
E|-3----------------------------------------------| 
+ 
e|------------------------------------------------| 
B|------------------------------------------------| 
G|-4-----------------------------------2----------| 
D|-5-----------------------------------3----------| 
A|-5-----------------------------------3----------| 
E|-3-----------------------------------1----------| 
+ 
e|------------------------------------------------| 
B|-------------------------------------1-----1----| 
G|-4-----------------------------------0-----0----| 
D|-5-----------------------------------2-----2----| 
A|-5-----------------------------------3-----3----| 
E|-3----------------------------------------------| 
+ 
e|------------------------------------------------| 
B|------------------------------------------------| 
G|-4-----------------------------------2----------| 
D|-5-----------------------------------3----------| 
A|-5-----------------------------------3----------| 
E|-3-----------------------------------1----------| 
+ 
e|------------------------------------------------| 
B|-------------------------------------1-----1----| 
G|-4-----------------------------------0-----0----| 
D|-5-----------------------------------2-----2----| 
A|-5-----------------------------------3-----3----| 
E|-3----------------------------------------------| 
+ 
e|------------------------------------------------| 
B|------------------------------------------------| 
G|-4-----------------------------------2----------| 
D|-5-----------------------------------3----------| 
A|-5-----------------------------------3----------| 
E|-3-----------------------------------1----------| 
+ 
e|------------------------------------------------| 
B|-------------------------------------1-----1----| 
G|-4-----------------------------------0-----0----| 
D|-5-----------------------------------2-----2----| 
A|-5-----------------------------------3-----3----| 
E|-3----------------------------------------------| 
+ 
e|------------------------------------------------| 
B|------------------------------------------------| 
G|-4-----------------------------------2----------| 
D|-5-----------------------------------3----------| 
A|-5-----------------------------------3----------| 
E|-3-----------------------------------1----------| 
+ 
e|------------------------------------------------| 
B|-------------------------------------1-----1----| 
G|-4-----------------------------------0-----0----| 
D|-5-----------------------------------2-----2----| 
A|-5-----------------------------------3-----3----| 
E|-3----------------------------------------------| 
+ 
e|------------------------------------------------| 
B|------------------------------------------------| 
G|-4-----------------------------------2-----2----| 
D|-5-----------------------------------3-----3----| 
A|-5-----------------------------------3-----3----| 
E|-3-----------------------------------1-----1----| 
+ 
 * begin long fade out 
e|------------------------------------------------| 
B|-------------------------------------1-----1----| 
G|-4-----------------------------------0-----0----| 
D|-5-----------------------------------2-----2----| 
A|-5-----------------------------------3-----3----| 
E|-3----------------------------------------------| 
+ 
 * continue long fade out 
e|------------------------------------------------| 
B|------------------------------------------------| 
G|-4-----------------------------------2----------| 
D|-5-----------------------------------3----------| 
A|-5-----------------------------------3----------| 
E|-3-----------------------------------1----------| 
+ 
 * continue long fade out 
e|------------------------------------------------| 
B|-------------------------------------1-----1----| 
G|-4-----------------------------------0-----0----| 
D|-5-----------------------------------2-----2----| 
A|-5-----------------------------------3-----3----| 
E|-3----------------------------------------------| 



OUTRO w/ Solo: 
Guitar II 
e|-3----------------------------------------------|| 
B|-3----------------------------------------------|| 
G|-0----------------------------------------------|| x 3 
D|-0----------------------------------------------|| 
A|-2----------------------------------------------|| 
E|-3----------------------------------------------|| 
+ 
e|-3----------------------------------------------| 
B|-3-----------------------------------------4--6-| 
G|-0--------------------------7b~------5--7-------| 
D|-0----------------------------------------------| 
A|-2----------------------------------------------| 
E|-3----------------------------------------------| 
+ 
* continue solo in G until songs end 



SONG STRUCTURE: 

Guitar I - 
INTRO 
VERSE I 
Chorus 
INTERLUDE 
VERSE II 
Chorus 
BRIDGE 
INTERLUDE 
VERSE II 
Chorus 
OUTRO 

Guitar II - 
INTRO 
VERSE I 
Chorus 
INTERLUDE 
VERSE II 
Chorus 
BRIDGE SOLO 
INTERLUDE 
VERSE II 
Chorus 
OUTRO w/ SOLO 

 
		  

Full key step upFull key step up
Half key step upHalf key step up
Half key step downHalf key step down
Full key step downFull key step down
auto scroll beats size up size down change color hide chords drawings
tab show chords e-chords YouTube Clip e-chords hide all tabs e-chords go to top tab

share