Tash Sultana

home > Tash Sultana

Pink Moon Tab

Tash Sultana

Difficulty: nolevelnolevel

by lucicamargo

tuner correct add songbook print version text version save to e-mail
chordsukulelecavacokeyboardtabbassdrumsharmonicsflute Guitar Pro
chords

Pink Moon

	  

Outro 

guitar 1 
e|-------------------------------------|------------------------------------------------| 
B|-----------------14~-14p12-----------|--------------14-12\11/12\11-------14-14-14-16--| 
G|-------13--13h15-----------15p13\11~-|------11-11h13----------------11h13-------------| 
D|-13/15-------------------------------|11/13-------------------------------------------| 
A|-------------------------------------|------------------------------------------------| 
E|-------------------------------------|------------------------------------------------| 

e|-14-13---------------------------------------------------------------------------| 
B|-------14p11-11/14~\--------14---------------------------------------------------| 
G|----------------------13/15----13\11-13b(15)-(15)br13p11-------------------------| 
D|---------------------------------------------------------13p11h13p11-------------| 
A|---------------------------------------------------------------------13p11h13~-11| 
E|---------------------------------------------------------------------------------| 

guitar 2 
e|--------------------| 
B|--------------------| 
G|----------11/13-----| 
D|-11/13-16-------13~-| 
A|--------------------| 
E|--------------------| 

guitar 1 
e|-----------------------------------------------| 
B|----------------------------------11-14-14p11--| 
G|-------11-13-13b15r13p11-11-11/13--------------| 
D|-11/13-----------------------------------------| 
A|-----------------------------------------------| 
E|-----------------------------------------------| 

e|--------------------------------------|--------------------------------14-13-11/13-11-9/11--7-| 
B|--------------------------------------|-----------------14----14b16~---16-14-12/14-12-11/12-9-| 
G|-------11-13-13b15r13p11-11-11/13-11~-|--------11-13/15----15---------------------------------| 
D|-11/13--------------------------------|--11/13------------------------------------------------| 
A|--------------------------------------|-------------------------------------------------------| 
E|--------------------------------------|-------------------------------------------------------| 


************************************ 

| h   Hammer-on 
| p   Pull-off 
| r   Release 
| b   Bend 
| br  Bend release 
| /   Slide up 
| \   Slide down 
| ~   Vibrato 

************************************ 
	  

there isn't a video lesson for this song

request
Search Paypal
auto scroll beats size up size down change color hide chords drawings
tab show chords e-chords YouTube Clip e-chords hide all tabs e-chords go to top tab