Tara Perdida

Acreditar Fora De Libertao

Tara Perdida

tabs

by  TAMAMOREIRA

save to print version add songbook text version e-mail correct tuner
chordsukulelecavacokeyboardtabbassdrumsharmonicaflute Guitar Pro
close

there isn't a video lesson for this song

chords

Acreditar Fora De Libertao

	  		

Riff 1 (2x) 

e-------------------------------------------------------------------- 
B-------------------------------------------------------------------- 
G-------------------------------------------------------------------- 
D-4--4--4------4p0-5p0-7p0-5p0-4p0--7--7--7-----4p0-5p0-7p0-5p0-4p0-- 
A-2--2--2--5------------------------5--5--5--7----------------------- 
E----------3---------------------------------5----------------------- 

e---------------------------------------------------------------------- 
B---------------------------------------------------------------------- 
G---------------------------------------------------------------------- 
D-4--4--4------4p0-5p0-7p0-5p0-4p0--7--7--7-----7--7--7-----7--7--7---- 
A-2--2--2--5------------------------5--5--5--7--5--5--5--7--5--5--5--7- 
E----------3---------------------------------5-----------5-----------5- 


Malha Inicial (Algumas notas soam durante mais tempo) 

e---------------------------------------------------------------------- 
B---------------------------------------------------------------------- 
G---------------------------------------------------------------------- 
D----------------5--4-----------7--5--4-----4--5--7--5--4-----4-------- 
A-2---5--4--5----------5--4--5-----------5-----------------5-----5--2-- 
E--------------3------------------------------------------------------- 

e----------------------------------------- 
B----------------------------------------- 
G----------------------------------------- 
D----------------5--4-----------7--9--7--- 
A-2--5--4--5-----------5--4--5------------ 
E-------------3--------------------------- 

Guitarra Solo                   Guitarra Ritmo 
e------------                 e------------ 
B-10s12s10~--                 B------------  
G-9s10s9~----                 G------------ 
D-7s9s7~-----                 D--7s9s7~---- 
A------------                 A--7s9s7~---- 
E------------                 E--5s7s5~---- 


Verso(2x) 

e------------------------------------------------------------------ 
B------------------------------------------------------------------ 
G------------------------------------------------------------------ 
D-4-4-4-4-4-------------7-7-7-7-7-------------4-4-4-4-4------------ 
A-2-2-2-2-2--5-5-5-5-5--5-5-5-5-5--7-7-7-7-7--2-2-2-2-2--5-5-5-5-5- 
E------------3-3-3-3-3-------------5-5-5-5-5-------------3-3-3-3-3- 

e-------------------------------------- 
B-------------------------------------- 
G--x--x--7--x--x--7--x--x--7--x--x--7-- 
D--x--x--7--x--x--7--x--x--7--x--x--7-- 
A--x--x--5--x--x--5--x--x--5--x--x--5-- 
E-------------------------------------- 


Riff 1a (alteração no final) (2x) 

e-------------------------------------------------------------------- 
B-------------------------------------------------------------------- 
G-------------------------------------------------------------------- 
D-4--4--4------4p0-5p0-7p0-5p0-4p0--7--7--7-----4p0-5p0-7p0-5p0-4p0-- 
A-2--2--2--5------------------------5--5--5--7----------------------- 
E----------3---------------------------------5----------------------- 

e---------------------------------------------------------------------- 
B---------------------------------------------------------------------- 
G---------------------------------------------------------------------- 
D-4--4--4------4p0-5p0-7p0-5p0-4p0--7--7--7---------------------------- 
A-2--2--2--5------------------------5--5--5--7--7--7--7--7--7--7--7---- 
E----------3---------------------------------5--5--5--5--5--5--5--5---- 


Refrão *(Cortar o som entre cada power chord no início do refrão)(2x) 

e------------------------------------------------------------- 
B------------------------------------------------------------- 
G--7-*-7-*-7-7-7---------------------------------------------- 
D--7-*-7-*-7-7-7--7-7-7-7-7--5-5-5-5-5--7-7-7-7-7--5-5-5-5-5-- 
A--5-*-5-*-5-5-5--7-7-7-7-7--5-5-5-5-5--7-7-7-7-7--5-5-5-5-5-- 
E-----------------5-5-5-5-5--3-3-3-3-3--5-5-5-5-5--3-3-3-3-3-- 

e---------------------------------------- 
B---------------------------------------- 
G-7-7-7-7-7------------------------------ 
D-7-7-7-7-7--7-7-7-7-7-7-7-7-7-7-7-7-7--- 
A-5-5-5-5-5--7-7-7-7-7-7-7-7-7-7-7-7-7--- 
E------------5-5-5-5-5-5-5-5-5-5-5-5-5--- 


Solo (Guitarra Ritmo efectua o Riff 1) 

e------------------------------------------------------ 
B--------------------------------------12------10------ 
G--7-6-7-7s9-7~----7--9--11----12--11------11------11~- 
D------------------------------------------------------ 
A------------------------------------------------------ 
E------------------------------------------------------ 

e---------------------------------------------------------------------- 
B-12------------------------------------------------------------------- 
G----11--9--7--7~--9--11--12--11~--12p11-9---11p9--7--9p7--6h7-6-----7- 
D----------------------------------------------------------------9----- 
A---------------------------------------------------------------------- 
E---------------------------------------------------------------------- 

e--------------------- 
B-----------12-------- 
G-9--11--9------11~~-- 
D--------------------- 
A--------------------- 
E--------------------- 

e-------------------------------------------------------------------- 
B-------------------------------------------------------------------- 
G-------------------------------------------------------------------- 
D-4--4--4------4p0-5p0-7p0-5p0-4p0--7--7--7-------------------------- 
A-2--2--2--5------------------------5--5--5--7----------------------- 
E----------3---------------------------------5----------------------- 


Verso 1a(Variante com pausa inicial) 

e-------------------------------------------------------------------- 
B-------------------------------------------------------------------- 
G-------------------------------------------------------------------- 
D---PAUSA-------7-7-7-7-7----------------4-4-4-4-4------------------- 
A---------------5-5-5-5-5----7-7-7-7-7---2-2-2-2-2---5-5-5-5-5------- 
E----------------------------5-5-5-5-5---------------3-3-3-3-3------- 

e-------------------------------------- 
B-------------------------------------- 
G--x--x--7--x--x--7--x--x--7--x--x--7-- 
D--x--x--7--x--x--7--x--x--7--x--x--7-- 
A--x--x--5--x--x--5--x--x--5--x--x--5-- 
E-------------------------------------- 

e------------------------------------------------------------------ 
B------------------------------------------------------------------ 
G------------------------------------------------------------------ 
D-4-4-4-4-4-------------7-7-7-7-7-------------4-4-4-4-4------------ 
A-2-2-2-2-2--5-5-5-5-5--5-5-5-5-5--7-7-7-7-7--2-2-2-2-2--5-5-5-5-5- 
E------------3-3-3-3-3-------------5-5-5-5-5-------------3-3-3-3-3- 

e-------------------------------------- 
B-------------------------------------- 
G--x--x--7--x--x--7--x--x--7--x--x--7-- 
D--x--x--7--x--x--7--x--x--7--x--x--7-- 
A--x--x--5--x--x--5--x--x--5--x--x--5-- 
E-------------------------------------- 


Malha 2 (Durante a primeira parte do verso 2) 

e------------- 
B------------- 
G------------- 
D------------- 
A--5---7---2-- 
E------------- 


Riff 1a (alteração no final)  

e-------------------------------------------------------------------- 
B-------------------------------------------------------------------- 
G-------------------------------------------------------------------- 
D-4--4--4------4p0-5p0-7p0-5p0-4p0--7--7--7-----4p0-5p0-7p0-5p0-4p0-- 
A-2--2--2--5------------------------5--5--5--7----------------------- 
E----------3---------------------------------5----------------------- 

e---------------------------------------------------------------------- 
B---------------------------------------------------------------------- 
G---------------------------------------------------------------------- 
D-4--4--4------4p0-5p0-7p0-5p0-4p0--7--7--7---------------------------- 
A-2--2--2--5------------------------5--5--5--7--7--7--7--7--7--7--7---- 
E----------3---------------------------------5--5--5--5--5--5--5--5---- 

Refrão  

e------------------------------------------------------------- 
B------------------------------------------------------------- 
G--7-*-7-*-7-7-7---------------------------------------------- 
D--7-*-7-*-7-7-7--7-7-7-7-7--5-5-5-5-5--7-7-7-7-7--5-5-5-5-5-- 
A--5-*-5-*-5-5-5--7-7-7-7-7--5-5-5-5-5--7-7-7-7-7--5-5-5-5-5-- 
E-----------------5-5-5-5-5--3-3-3-3-3--5-5-5-5-5--3-3-3-3-3-- 

e---------------------------------------- 
B---------------------------------------- 
G-7-7-7-7-7------------------------------ 
D-7-7-7-7-7--7-7-7-7-7-7-7-7-7-7-7-7-7--- 
A-5-5-5-5-5--7-7-7-7-7-7-7-7-7-7-7-7-7--- 
E------------5-5-5-5-5-5-5-5-5-5-5-5-5--- 

Riff Pós-Refrão("Um Conceito que me dê,força de libertação...) 

e------------------------------------------------------------------- 
B------------------------------------------------------------------- 
G-----------------------7-7-7-7-7----------------------------------- 
D-5-5-5-5-5--7-7-7-7-7--7-7-7-7-7--9-9-9-9-9--5-5-5-5-5--7-7-7-7-7-- 
A-5-5-5-5-5--7-7-7-7-7--5-5-5-5-5--9-9-9-9-9--5-5-5-5-5--7-7-7-7-7-- 
E-3-3-3-3-3--5-5-5-5-5-------------7-7-7-7-7--3-3-3-3-3--5-5-5-5-5-- 

e---------------------- 
B---------------------- 
D-7-7-7-7-7-7-7-7-7-7-- 
A-7-7-7-7-7-7-7-7-7-7-- 
G-5-5-5-5-5-5-5-5-5-5-- 
E---------------------- 

e------------------------------------------------ 
B------------------------------------------------ 
G-----------------------7-7-7-7-7---------------- 
D-5-5-5-5-5--7-7-7-7-7--7-7-7-7-7--9-9-9-9-9----- 
A-5-5-5-5-5--7-7-7-7-7--5-5-5-5-5--9-9-9-9-9----- 
E-3-3-3-3-3--5-5-5-5-5-------------7-7-7-7-7----- 


Malha 3 (durante o Pós-Refrão) 

e----------------- 
B----------------- 
G----------------- 
D----------------- 
A-5--4------------ 
E-------7--5--3--- 


Riff Final ("Quero sempre encontrar Solução") 

e------------------------------------------------------------------- 
B------------------------------------------------------------------- 
G------------------------7-7-7-7-7-7-7-7-7-7------------------------ 
D--5-5-5-5-5--7-7-7-7-7--7-7-7-7-7-7-7-7-7-7--5-5-5-5-5--7-7-7-7-7-- 
A--5-5-5-5-5--7-7-7-7-7--5-5-5-5-5-5-5-5-5-5--5-5-5-5-5--7-7-7-7-7-- 
E--3-3-3-3-3--5-5-5-5-5-----------------------3-3-3-3-3--5-5-5-5-5-- 

e------------------------------------------------------------------ 
B------------------------------------------------------------------ 
G-7-7-7-7-7-7-7-7-7-7------------------------7--7--7--7-7-7--7-7-7- 
D-7-7-7-7-7-7-7-7-7-7--5-5-5-5-5--7-7-7-7-7--7--7--7--7-7-7--7-7-5- 
A-5-5-5-5-5-5-5-5-5-5--5-5-5-5-5--7-7-7-7-7--5--5--5--5-5-5--5-5-5- 
E----------------------3-3-3-3-3--5-5-5-5-5------------------------ 
                      |-------P.M.---------| 


                             FIM 
		  

See also:

tabs Tara Perdida - Acreditar tabs Tara Perdida - 30 Dias tabs Tara Perdida - Feia tabs Tara Perdida - Acreditar Fora De Libertao
e-chords

Other versions:

tabs Tara Perdida - Acreditar Fora De Libertao
auto scroll beats size up size down change color hide chords drawings
tab show chords e-chords YouTube Clip e-chords hide all tabs e-chords go to top tab

share