Tara Perdida

30 Dias

Tara Perdida

tabs Easy easy

by  KYHUM

save to print version add songbook text version e-mail correct tuner
chordsukulelecavacokeyboardtabbassdrumsharmonicaflute Guitar Pro
close

there isn't a video lesson for this song

chords

30 Dias

	  		Intro 
Guitar 1 
e|---------| 
B|---------| 
G|---------| 
D|---------| 
A|--2-2-2--| 
E|--0-0-0--| 


Guitar 2 
e|-------------------------------| 
B|-------------------------------| 
G|--------------------------7-4--| 
D|--5p4-5p4-5p4-5p4-5p4-5p4------| 
A|-------------------------------| 
E|-------------------------------| 

Part 2 
2 guitars 
e|---------------------------| 
B|---------------------------| 
G|---------------------------| 
D|--------------5-5-5--------| x4 
A|--2-2-2-5-5-5-3-3-3-7-7-7--| 
E|--0-0-0-3-3-3-------5-5-5--| 


e|---------------------------| 
B|---------------------------| 
G|---------------------------| 
D|--------------5-5-5--------| x4 
A|--2-2-2-5-5-5-3-3-3-7-7-7--| 
E|--0-0-0-3-3-3-------5-5-5--| 


e|---------------------------| 
B|---------------------------| 
G|---------------------------| 
D|--------5-5-5--------------| 
A|--2-2-2-3-3-3-5-5-5-7-7-7--| 
E|--0-0-0-------3-3-3-5-5-5--| 

e|---------------------------| 
B|---------------------------| 
G|---------------------------| 
D|--------5-5-5-------7-7-7--| 
A|--2-2-2-3-3-3-5-5-5-5-5-5--| 
E|--0-0-0-------3-3-3--------| 

e|-----------------------------------------------| 
B|-----------------------------------------------| 
G|-----------------------------------------------| 
D|------5-5--------------------------------------| 
A|--2-2-3-3--5---5--5-5-5-5-5-5-5-5-5-5-5-5-5-5--| 
E|--0-0------3---7--7-7-7-7-7-7-7-7-7-7-7-7-7-7--| 
PM                  . . . . . . . . . . . . . . 

> Chorus 
2 guitars 
e|---------------------------------------------| 
B|---------------------------------------------| 
G|---------------------------------------------| 
D|--5-5-5-5--7-7-7-7---------------------------| 
A|--3-3-3-3--5-5-5-5--7-7-7-7-7-7-7-7-7-7-7-7--| 
E|--------------------5-5-5-5-5-5-5-5-5-5-5-5--| 


e|-----------------------|-------------------------------| 
B|-----------------------|-------------------------------| 
G|-----------------------|-------------------------------| 
D|--5-5-5-5--7-7-7-7-----|-------------------------------| 
A|--3-3-3-3--5-5-5-5--7--|--7-7-7-7-7-7-7-7-7-7-7-7-7-7--| 
E|--------------------5--|--5-5-5-5-5-5-5-5-5-5-5-5-5-5--| 
                           
then 

Guitar 1 
e|---------------------------------------------| 
B|---------------------------------------------| 
G|---------------------------------------------| 
D|--5-5-5-5--7-7-7-7---------------------------| 
A|--3-3-3-3--5-5-5-5--7-7-7-7-7-7-7-7-7-7-7-7--| 
E|--------------------5-5-5-5-5-5-5-5-5-5-5-5--| 

Guitar 2 
e|----------------------------------------------| 
B|----------------------------------------------| 
G|----------------------------------------------| 
D|--5-5-5-5--7-7-7-7-------------------------5--| 
A|--3-3-3-3--5-5-5-5--7--5-7--5-7--5-7--5-7-----| 
E|----------------------------------------------| 



Guitar 1 
e|---------------------------------------| 
B|---------------------------------------| 
G|---------------------------------------| 
D|--5-5-5-5--7-7-7-7---------------------| 
A|--3-3-3-3--5-5-5-5--2~-----------------| 
E|--------------------0~--2-2-2-3-3-3-2--| 
PM                        ............. 

Guitar 2 
e|------------------------0~--------|----| 
B|-----------------------------0~--------| 
G|----------------------------------0~---| 
D|--5-5-5-5--7-7-7-7---------------------| 
A|--3-3-3-3--5-5-5-5---------------------| 
E|---------------------------------------| 

2 guitars 
e|---------------------------------------------| 
B|---------------------------------------------| 
G|---------------------------------------------| 
D|--5-5-5-5--7-7-7-7---------------------------| 
A|--3-3-3-3--5-5-5-5--7-7-7-7-7-7-7-7-7-7-7-7--| 
E|--------------------5-5-5-5-5-5-5-5-5-5-5-5--| 

e|--------------------| 
B|--------------------| 
G|--------------------| 
D|--5-5-5-5--7-7-7-7--| 
A|--3-3-3-3--5-5-5-5--| 
E|--------------------| 

> Intro : guitar 1 plays part 2, guitar 2 plays part 1 
> Verse 
> Chorus 

then 

Guitar 1 
e|---------------------------| 
B|---------------------------| 
G|---------------------------| 
D|--------------5-5-5--------| x4 
A|--2-2-2-5-5-5-3-3-3-7-7-7--| 
E|--0-0-0-3-3-3-------5-5-5--| 

Guitar 2 
e|----------------------------| 
B|----------------------------| 
G|----------------------7--4--| 
D|--5--4---5--4---5--4--------| x2 
A|----------------------------| 
E|----------------------------| 

> Solo 
Guitar 1 
e|------| 
B|------| 
G|--9~--| 
D|--9~--|  
A|--7~--| 
E|------| 

e|--------------------------| 
B|--------------------------| 
G|--------------------------| 
D|--9~----11~----12~----7~--| x2 
A|--7~----9~-----10~----5~--| 
E|--------------------------| 

Guitar 2 
e|---------------------------| 
B|---------------------------| 
G|--9--7-----7---------------| x2 
D|--------9-----9--8--7------| 
A|-----------------------10--| 
E|---------------------------| 

                                                          
e|--------------------| 
B|--------------------| 
G|--9h7-----7---------| x2 
D|-------9------------| 
A|--------------------| 
E|--------------------| 

e|---------------------------| 
B|---------------------------| 
G|--9--7-----7---------------| x1 
D|--------9-----9--8--7------| 
A|-----------------------10--| 
E|---------------------------| 

                                                                      
e|--------------------| 
B|--------------------| 
G|--9h7-----7---------| x3 there's other guitar on 2nd  
D|-------9------------|    and 3th playin' this: 
A|--------------------| 
E|--------------------| 

Guitar 3 
e--------------------------------| 
B--10h8-----8-----12h10------10--| 
G--------9---------------12------| 
D--------------------------------| 
A--------------------------------| 
E--------------------------------| 

> Chorus 
> Intro (Pre verse) 

> Outro 
Both guitars 
e|--------------------| 
B|--------------------| 
G|--------------------| 
D|--------------------| 
A|--2--------------2--| 
E|--0--------------0--| 

		  

See also:

tabs Tara Perdida - Acreditar tabs Tara Perdida - 30 Dias tabs Tara Perdida - Feia tabs Tara Perdida - Acreditar Fora De Libertao
e-chords

Other versions:

tabs Tara Perdida - 30 Dias
auto scroll beats size up size down change color hide chords drawings
tab show chords e-chords YouTube Clip e-chords hide all tabs e-chords go to top tab

share