Tantric

My Turn

Tantric

tabs

by  VICTBORGES

save to print version add songbook text version e-mail correct tuner
chordsukulelecavacokeyboardtabbassdrumsharmonicaflute Guitar Pro
close

there isn't a video lesson for this song

chords

My Turn

Key:  E More
My Turn Key BB
My Turn Key CC
My Turn Key C#C#
My Turn Key DD(one step down)
My Turn Key D#D#(half step down)
My Turn Key EE(original key)
My Turn Key FF(half step up)
My Turn Key F#F#(one step up)
My Turn Key GG
My Turn Key G#G#
My Turn Key AA
My Turn Key A#A#
	  		
Tuning:Standard 

   INTRO 
   Guitar 1 
e|----------------------3---------------------------3------------------------| 
B|----------------------0---------------------------0------------------------| 
G|--------0--------0----0----------------0------0---0------------------------| 
D|------0--------0------0-------------0-------0-----0------------------------| 
A|--0h2 ----2h3------------------0h2------2h3--------------------------------| 
E|-------------------3----------------------------3--------------------------| 

   Guitar 2 
e|----------------------12-10----12-10---------------------------------------| 
B|----------------------------12-------12----------12------------------------| 
G|----------------------------------------12-12-14---------------------------| 
D|---------------------------------------------------------------------------| 
A|---------------------------------------------------------------------------| 
E|---------------------------------------------------------------------------| 
   Guitar 3 
e|---------------------------------------------------------------------------| 
B|---------------------------------------------------------------------------| 
G|---------------------------------------------------------------------------| 
D|----------------------14-12----14-12-------------9-------------------------| 
A|----------------------------14-------14-10-10-12---------------------------| 
E|---------------------------------------------------------------------------| 


   Guitar 1 
e|----------------------3---------------------------3------------------------| 
B|----------------------0---------------------------0------------------------| 
G|--------0--------0----0----------------0------0---0------------------------| 
D|------0--------0------0-------------0-------0-----0------------------------| 
A|--0h2 ----2h3------------------0h2------2h3--------------------------------| 
E|-------------------3----------------------------3--------------------------| 

   Guitar 2 
e|----------------------12-10----12-10---------------------------------------| 
B|----------------------------12-------12------------------12----------------| 
G|----------------------------------------12---------12-14----14-12-14-12----| 
D|---------------------------------------------------------------------------| 
A|---------------------------------------------------------------------------| 
E|---------------------------------------------------------------------------| 
   Guitar 3 
e|---------------------------------------------------------------------------| 
B|---------------------------------------------------------------------------| 
G|---------------------------------------------------------------------------| 
D|----------------------14-12----14-12---------------------9-----------------| 
A|----------------------------14-------14-10---------10-12----12-10-12-10----| 
E|---------------------------------------------------------------------------| 


  Verse Riff 

e|---3-------------------3---------------------------------------------------| 
B|---0-------------------0---------------------------------------------------| 
G|---0-------0-------0---0---------------------------------------------------| 
D|---------0-------0-----0---------------------------------------------------| 
A|-----0h2-----2h3-----------------------------------------------------------| 
E|-3-------------------3-----------------------------------------------------| 

 Said, It's hard to find yourself in this world 
 With all the ones I have I'm still bored 
 Writing for everything, this life is such a crazy thing 
 I dont't think that I will ever get it, and if I do I can't explain it 
 no one there to just forget it, promises are so pathetic 

 Hey you working nine to five, knuckles are bleeding just to stay alive 
 everybody thinks that I'm so crazy, going to church to not feel guilty 
 you think that your rich but your not, cause your dad's just smoking pot 
 you don't know what I got, this wistful misery is a gift that you forgot 

Chorus 
 E                                  D                                  C 
 Behind this cheerful smile lies an empty soul I've been hiding for so long 
     E                      D     G                D 
 and I don't want to hide it anymore. Will it be my turn, I tried so hard to  
  C              D                    E       G              D 
 learn from everything but something's missing. Will it be my turn, how much can 
         C                 D               E         C 
 one man yearn to fill the gap he knows is missing. I'm tired of missing  
 D                  G 
 all the things I'm wishing. 


 Verse 
 Well, it's fun to laugh at all kiss asses, while they hide in designer sunglasses 
 They spend it all on the bling, they never know what it means 
 I don't really try to understand it, pop bottles just rule the planet 
 Dance boots big boobs and plastic, Hollywood skin is elastic 

 Hey you looking down at me, with your brand new clothes starbucks coffee 
 sitting in your office in Beverly Hills, figuring out how I'm gonna pay your bills 
 sitting there smiling while you take the credit, stole my 20 million dollars there I said it 
 wanna be me cause you can't be you, Prozac happiness is all fake too. 


************************************ 


| h   hammer-on 
| p   pull-off 
| ~   vibrato 
| +   harmonic 
| x   Mute note 
| b   Bend 


************************************ 
		  

Full key step upFull key step up
Half key step upHalf key step up
Half key step downHalf key step down
Full key step downFull key step down
hide glossary

See also:

tabs Lindsay Lohan - Take me away tabs Michael Jackson - BEN tabs Stevie Wonder - Sir Duke tabs Michael Jackson - 3 Michael Jackson Riffs tabs Christopher Cross - Sailing tabs Black Eyed Peas - Pump it
e-chords

Other versions:

tabs Hoobastank - My Turn tabs Tantric - My Turn
auto scroll beats size up size down change color hide chords drawings
tab show chords e-chords YouTube Clip e-chords hide all tabs e-chords go to top tab

share