Tantric

Chasing After

Tantric

tabs

by  ROBEPOIEL

save to print version add songbook text version e-mail correct tuner
chordsukulelecavacokeyboardtabbassdrumsharmonicaflute Guitar Pro
close

there isn't a video lesson for this song

chords

Chasing After

	  		


Intro 
e|--------------------------------------------------------------------------| 
B|--------------------------------------------------------------------------| 
G|------44----44----6----------------------------------------(8x)-----------| 
D|---66-44-2~-44-6--6-------------------------------------------------------| 
A|---66-22-2~-22-6--4-------------------------------------------------------| 
E|---44----0~----4----------------------------------------------------------| 

Verses 
e|--------------------------------------------------------------------------| 
B|--------------------------------------------------------------------------| 
G|--------------------------------------------------------------------------| 
D|----XXX-4~-XXX-4~-X--4/6--------------------------------------------------| 
A|----XXX-2~-XXX-2~-X--2/4--------------------------------------------------| 
E|----XXX----XXX----X-------------------------------------------------------| 

Prechorus 
e|--------------------------------------------------------------------------| 
B|--------------------------------------------------------------------------| 
G|-------44----44---6---------------------------------------(4x)------------| 
D|----66-44-2~-44-6-6-------------------------------------------------------| 
A|----66-22-2~-22-6-4-------------------------------------------------------| 
E|----44----0~----4---------------------------------------------------------| 

Chorus                                      After third time 
e|--------------------------|----------------------------------| 
B|--------------------------|----------------------------------| 
G|------44----444~-----(3x)-|----------------------------------| 
D|---66-44-2~-444~-444~-----|----2~----------------------------| 
A|---66-22-2~-222~-444~-----|----2~----------------------------| 
E|---44----0~------222~-----|----0~----------------------------| 

Bridge 
e|--------------------------------------------------------------------------| 
B|--------------------------------------------------------------------------| 
G|------------------6~-6-------------------(8x)-----------------------------| 
D|-------6-8~-8~------------------------------------------------------------| 
A|-----6--------------------------------------------------------------------| 
E|---4----------------------------------------------------------------------| 

Solo (Bridge played with solo) 
e|--------------------------------------------------------------------------| 
B|----9~-9p7h9~---9p7h9--9p7h9--7---4~-4~-3-2-0-4~-4~-3-2-0-----------------| 
G|---------------------------------------------------------------------(2x)-| 
D|--------------------------------------------------------------------------| 
A|--------------------------------------------------------------------------| 
E|--------------------------------------------------------------------------| 

Outro 
e|--------------------------------------------------------------------------| 
B|--------------------------------------------------------------------------| 
G|------44----44----6-----------------------------------(2x)----------------| 
D|---66-44-2~-44-6--6-------------------------------------------------------| 
A|---66-22-2~-22-6--4-------------------------------------------------------| 
E|---44----0~----4----------------------------------------------------------|  
		  

See also:

tabs Justin Timberlake - Rock Your Body tabs Eva Cassidy - Ain't No Sunshine tabs Michael Jackson - Beat it tabs Bachman Turner Overdrive - You aint seen nothing yet tabs Black Eyed Peas - Pump it tabs Cyndi Lauper - Time After Time
e-chords

Other versions:

tabs Tantric - Chasing After
auto scroll beats size up size down change color hide chords drawings
tab show chords e-chords YouTube Clip e-chords hide all tabs e-chords go to top tab

share