Tankard

Need Money For Beer

Tankard

tabs Expert expert

by  BOMBAXXX

save to print version add songbook text version e-mail correct tuner
chordsukulelecavacokeyboardtabbassdrumsharmonicaflute Guitar Pro
close

there isn't a video lesson for this song

chords

Need Money For Beer

	  		 Intro 
|-------------------------------| 
|-------------------------------| 
|-------------------------------| 
|-9--------9--------9-----------|gtr 1 
|-7--------7--------7-7-5-8-7-5-| 
|---000000---000000---5-3-6-5-3-| 
|   ......   ...... 
|-------------------------------| 
|-------------------------------| 
|-------------------------------| 
|-------------------------------|gtr 2 
|-------------------------------| 
|-------------------------------| 

|-----------------------------| 
|-----------------------------| 
|-----------------------------| 
|-9--------9--------9---------|gtr 1 
|-7--------7--------7-7-5-8---| 
|---000000---000000---5-3-6---| 
|   ......   ...... 
|-----------------------------| 
|-----------------------------| 
|-----------------------------| 
|-----------------------------|gtr 2 
|---------------------7-5-8---| 
|---------------------5-3-6---| 

 Pre-solo  
|--------------12tr13~~~~~~~-| 
|----------------------------| 
|----------------------------| 
|----------------------------|gtr 3 
|----------------------------| 
|----------------------------| 
| 
|----------------------------| 
|-12tr13~~~~~~~~~~~~~~~~~~~~-| 
|----------------------------| 
|----------------------------|gtr 4 
|----------------------------| 
|----------------------------| 


 Riff 1 
|-------------------------------| 
|-------------------------------| 
|-------------------------------| 
|-9--------9--------9-----------|gtr 1 
|-7--------7--------7-7-5-8-7-5-| 
|---000000---000000---5-3-6-5-3-| 
|   ......   ...... 
|-------------------------------| 
|-------------------------------| 
|-------------------------------| 
|-------------------------------|gtr 2 
|-2--------2--------2-7-5-8-7-5-| 
|-0-000000-0-000000-0-5-3-6-5-3-| 
    ......   ...... 

|-----------------------------| 
|-----------------------------| 
|-----------------------------| 
|-9--------9--------9---------|gtr 1 
|-7--------7--------7-7-5-8---| 
|---000000---000000---5-3-6---| 
|   ......   ...... 
|-----------------------------| 
|-----------------------------| 
|-----------------------------| 
|-----------------------------|gtr 2 
|-2--------2--------2-7-5-8---| 
|-0-000000-0-000000-0-5-3-6---| 
    ......   ...... 


 Riff 2               x3             x1 
|-----------------------|---------------| 
|-----------------------|---------------| 
|-----------------------|---------------| 
|-----------------------|---------------|gtr 1 
|-9---------------------|-4--------5--4-| 
|-7-777777-7h8p7p5p3h8--|-2-222222-3--2-| 
|   ......                  ...... 
|-----------------------|---------------| 
|-----------------------|---------------| 
|-----------------------|---------------| 
|-----------------------|---------------|gtr 2 
|-9--------910p9p7p5p3--|-4--------5--4-| 
|-7-777777--------------|-2-222222-3--2-| 
    ......                  ...... 



 Riff 3         x3           x1 
|-----------------|------------| 
|-----------------|------------| 
|-----------------|------------| 
|-9-4-5-----------|------------|both 
|-7-2-3--33333333-|-4-5-2---\--| 
|--------........-|-2-3-0---\--| 


 Fill 1 
|-------------------------------| 
|-------------------------------| 
|-------------------------------| 
|-9--------9--------9-----------|gtr 1 
|-7--------7--------7-7-5-8-7-5-| 
|---000000---000000---5-3-6-5-3-| 
|   ......   ...... 
|-------------------------------| 
|-------------------------------| 
|-------------------------------| 
|-------------------------------|gtr 2 
|-2x----------------------------| 
|-0x----------------------------| 

|-----------------------------| 
|-----------------------------| 
|-----------------------------| 
|-9--------9--------9---------|gtr 1 
|-7--------7--------7-7-5-8---| 
|---000000---000000---5-3-6---| 
|   ......   ...... 
|-----------------------------| 
|-----------------------------| 
|-----------------------------| 
|-----------------------------|gtr 2 
|---------------------7-5-8---| 
|---------------------5-3-6---| 

|-------------------------------| 
|-------------------------------| 
|-------------------------------| 
|-9--------9--------9-----------|gtr 1 
|-7--------7--------7-7-5-8-7-5-| 
|---000000---000000---5-3-6-5-3-| 
|   ......   ...... 
|-------------------------------| 
|-------------------------------| 
|-------------------------------| 
|-------------------------------|gtr 2 
|-2x-------2x-------2x----------| 
|-0x-------0x-------0x----------| 

|-----------------------------| 
|-----------------------------| 
|-----------------------------| 
|-9--------9--------9---------|gtr 1 
|-7--------7--------7-7-5-8---| 
|---000000---000000---5-3-6---| 
|   ......   ...... 
|-----------------------------| 
|-----------------------------| 
|-----------------------------| 
|-----------------------------|gtr 2 
|-2--------2x---------7-5-8---| 
|-0x-------0x---------5-3-6---| 
		  

auto scroll beats size up size down change color hide chords drawings
tab show chords e-chords YouTube Clip e-chords hide all tabs e-chords go to top tab

share