Tankard

Chemical Invasion

Tankard

tabs

by  PAULANTUNES

save to print version add songbook text version e-mail correct tuner
chordsukulelecavacokeyboardtabbassdrumsharmonicaflute Guitar Pro
close

there isn't a video lesson for this song

chords

Chemical Invasion

	  		                                    PM|           ~     PM|       ~ 
|--------------------------------||--------------------|--------------| 
|--------------------------------||o-------------------|--------------| 
|--------------------------------||--------------------|--------------| 
|--------------------------------||--------------------|--------------| 
|--------------------------------||o---------7---------|-----6-7-7----| 
|--------------------------------||--0-0-4h7-------3---|-0-0-4-5-5-3--| 
| 
| Gtr II 
|                                    PM----------------------|     ~ 
|---4----3----2-0----------------||--------------------|--------------| 
|--------------------------------||o-------------------|--------------| 
|-4----3----2-----x--------------||--------------------|--------------| 
|-----------------x-3-4----------||--------------------|--------------| 
|-----------------x-1-2----------||o-------------------|-------7---5--| 
|------------------------3b4-(3)-||--0-0-0---0-0-0-0-0-|-0-0-0-5---3--| 


  1.                               2. 
  PM|           ~     PM|           PM|           ~     PM| 
|-------------------|------------||-------------------|--------------| 
|-------------------|-----------o||-------------------|--------------| 
|-------------------|------------||-------------------|----------(6)-| 
|-------------------|------------||-------------------|----------(7)-| 
|---------7---------|-----6-7---o||---------7---------|-----6-7------| 
|-0-0-4h7-------3---|-0-0-4-5----||-0-0-4h7-------3---|-0-0-4-5------| 
| 
| PM----------------------|         PM----------------------| 
|-------------------|------------||-------------------|--------------| 
|-------------------|-----------o||-------------------|--------------| 
|-------------------|------------||-------------------|--------------| 
|-------------------|------------||-------------------|--------------| 
|-------------------|-------7---o||-------------------|-------7------| 
|-0-0-0---0-0-0-0-0-|-0-0-0-5----||-0-0-0---0-0-0-0-0-|-0-0-0-5------| 

 0:18 
                                  ~   ~   PM|           ~     PM|       ~ 
|---------------------|-----------------|-------------------|--------------| 
|---------------------|-----------------|-------------------|--------------| 
|---------------------|-----------------|-------------------|--------------| 
|---------------------|-----------------|-------------------|--------------| 
|---------------------|-----------5-5---|---------7---------|-----6-7-7----| 
|-5-5-8p7p5-5-5-8p7p5-|-5-5-8p7p5-----3-|-0-0-4h7-------3---|-0-0-4-5-5-3--| 
| 
|                                     ~   PM----------------------|     ~ 
|---------------------|-----------------|-------------------|--------------| 
|---------------------|-----------------|-------------------|--------------| 
|---------------------|-----------------|-------------------|--------------| 
|-7-7-7---7-7-7-7---7-|-7-7-7---7-7-----|-------------------|--------------| 
|-7-7-7---7-7-7-7---7-|-7-7-7---7-7---5-|-------------------|-------7---5--| 
|-5-5-5---5-5-5-5---5-|-5-5-5---5-5---3-|-0-0-0---0-0-0-0-0-|-0-0-0-5---3--| 


                              ~~~~  PM|           ~ 
|-----------------|---------------|-------------------| 
|-----------------|---------------|-------------------| 
|-----------------|---------------|-------------------| 
|-9-x-9-9-9-9-9-9-|---------------|-------------------| 
|-9-x-9-9-9-9-9-9-|-7-7-----------|---------7---------| 
|-7-x-7-7-7-7-7-7-|-5-5-8p7p5-5-3-|-0-0-4h7-------3---| 
| 
|                               ~   PM--------------| 
|-----------------|---------------|-------------------| 
|-----------------|---------------|-------------------| 
|-----------------|---------------|-------------------| 
|-9-9-9-9-9-9-9-9-|-7-7-7---7-7---|-------------------| 
|-9-9-9-9-9-9-9-9-|-7-7-7---7-7---|-------------------| 
|-7-7-7-7-7-7-7-7-|-5-5-5---5-5-3-|-0-0-0---0-0-0-0-0-| 


                                             0:36 
                                          Q=120 
                                             4/4 
  Gtrs I, II 
                    ~ 
|---------------------|--------|----------||----------|| 
|---------------------|--------|----------||o--------o|| 
|---------------------|--------|----------||----------|| 
|-9-9-9-9-9-9-9-9-9---|-2------|-(2)------||--(2)-----|| 
|-9-9-9-9-9-9-9-9-9---|-2------|-(2)------||o-(2)----o|| 
|-7-7-7-7-7-7-7-7-7-3-|-0------|-(0)------||--(0)-----|| 


    PM----|     PM--------|           PM----|     PM--------| 
||----------------------------------|-----------------------------------|| 
||o---------------------------------|----------------------------------o|| 
||----------------------------------|-----------------------------------|| 
||----------9s8-------------8s7-7s6-|---------9s8-------------8s7-7s6---|| 
||o---------7s6-------------6s5-5s4-|---------7s6-------------6s5-5s4--o|| 
||--0-0-0-0-----0-0-0-0-0-0---------|-0-0-0-0-----0-0-0-0-0-0-----------|| 


    PM----|     PM--------|     PM----------|     PM--------| 
||----------------------------------|-----------------------------------|| 
||o---------------------------------|----------------------------------o|| 
||----------------------------------|-----------------------------------|| 
||----------------------------------|-----------------------------------|| 
||o---------5s4-------------7s6-----|---------8s7-------------3s5-5s4--o|| 
||--0-0-0-0-3s2-0-0-0-0-0-0-5s4-0-0-|-0-0-0-0-6s5-0-0-0-0-0-0-1s3-3s2---|| 


    PM----|     PM--------|     PM----------|     PM--------| 
||----------------------------------|-------------------------------------|| 
||o---------------------------------|------------------------------------o|| 
||----------------------------------|-------------------------------------|| 
||----------------------------------|-------------------------------------|| 
||o---------5s4-------------7s6-----|---------8s7-------------8s10-10s9--o|| 
||--0-0-0-0-3s2-0-0-0-0-0-0-5s4-0-0-|-0-0-0-0-6s5-0-0-0-0-0-0-6s=8--8s7---|| 


   1:03 
||-------------------|--------------------|------------------| 
||o------------------|--------------------|------------------| 
||--9--9--9S7S9-10-9-|---------8S7S8-10-9-|-9--9--9S7S9-10-9-| 
||--9--9--9S7S9-10-9-|-10--10--8S7S8-10-9-|-9--9--9S7S9-10-9-| 
||o-7--7--7S5S7--8-7-|-10--10--6S5S6--8-7-|-7--7--7S5S7--8-7-| 
||-------------------|--8---8-------------|------------------| 

                         Q=230 
|-------------------------||----------|--------| 
|------------------------o||----------|--------| 
|---------10S9S10-12-10\--||-9--------|-(9)----| 
|-10--10--10S9S10-12-10\--||-9--------|-(9)----| 
|-10--10---8S7--8-10--8\-o||-7--------|-(7)----| 
|--8---8------------------||-0--------|-(0)----| 

 1:21 
  Gtr I 
                             PM                                 PM 
|----------------|-----------------|----------------|----------------| 
|----------------|-----------------|----------------|----------------| 
|----------------|-----------------|----------------|----------------| 
|----------------|-----------------|----------------|-------------7--| 
|--------3p2p0---|-------------3p2-|--------3p2p0---|-------------5--| 
|-0--0-0-------2-|-(2)-3--5--0-----|-0--0-0-------2-|-(2)-3--5--0----| 
| 
| Gtr II 
|----------------|-----------------|----------------|----------------| 
|----------------|-----------------|----------------|----------------| 
|----------------|-----------------|----------------|----------------| 
|----------------|-----------------|----------------|----------------| 
|----------------|-----------------|----------------|----------------| 
|----------------|-----------------|----------------|----------------| 

                             PM 
|----------------|-----------------|----------------|---------------| 
|----------------|-----------------|----------------|---------------| 
|----------------|-----------------|----------------|---------------| 
|----------------|-----------------|--------3p2p0---|--------8---7--| 
|--------3p2p0---|-------------3p2-|--------------2-|-(2)-3--6---5--| 
|-0--0-0-------2-|-(2)-3--5--0-----|-0--0-0---------|---------------| 
| 
|----------------|-----------------|----------------|---------------| 
|----------------|-----------------|----------------|---------------| 
|----------------|-----------------|----------------|---------------| 
|----------------|-----------------|----------------|---------------| 
|----------------|-----------------|----------------|---------------| 
|----------------|-----------------|----------------|---------------| 


  Gtrs I, II 
                             PM                                 PM 
|----------------|-----------------|----------------|----------------| 
|----------------|-----------------|----------------|----------------| 
|----------------|-----------------|----------------|----------------| 
|----------------|-----------------|----------------|-------------7--| 
|--------3p2p0---|-------------3p2-|--------3p2p0---|-------------5--| 
|-0--0-0-------2-|-(2)-3--5--0-----|-0--0-0-------2-|-(2)-3--5--0----| 


                             PM 
|----------------|-----------------|----------------|---------------| 
|----------------|-----------------|----------------|---------------| 
|----------------|-----------------|----------------|---------------| 
|----------------|-----------------|--------3p2p0---|--------8---7--| 
|--------3p2p0---|-------------3p2-|--------------2-|-(2)-3--6---5--| 
|-0--0-0-------2-|-(2)-3--5--0-----|-0--0-0---------|---------------| 


   1:37 
    PM--|              PM--| 
                                         4x 
||-------------------|-------------------||-----------|-------------| 
||o------------------|------------------o||-----------|-------------| 
||-------------------|-------------------||-----------|-------------| 
||-------------------|-------------------||-----------|-------------| 
||o-------5S4---7--6-|-------8S7---7--6-o||-8------8--|-7----8--7---| 
||--0-0-0-3S2-0-5--4-|-0-0-0-6S5-0-5--4--||-6------6--|-5----6--5---| 


    $ 
                                                                      5x 
||----------------|----------------|---------------|------------------|| 
||o---------------|----------------|---------------|-----------------o|| 
||----------------|-5---4---3------|---------------|------------------|| 
||----------------|-5-x-4-x-3------|---------------|-x-x-5S4-x--------|| 
||o---------------|---x---x--------|---------------|-x-x-5S4-x-------o|| 
||--0-0-2-3--2--0-|---x---x---3--2-|-0-0-2-3--2--0-|-x-x-----x-3S2----|| 


 2:08 
  TP TP TPTP    TP TP TPTP    TP TP TPTP    TP TP 
|-------------|-------------|-------------|-------------| 
|-------------|-------------|-------------|-------------| 
|-------------|-------------|-------------|-------------| 
|-------------|-------------|-------------|-------4S5---| 
|-------------|-------------|-------------|-------2S3---| 
|-0--0--3-2---|-0--0--2-3---|-0--0--3-2---|-0--0--------| 


                                                                      3x 
||----------------|----------------|---------------|------------------|| 
||o---------------|----------------|---------------|-----------------o|| 
||----------------|-5---4---3------|---------------|------------------|| 
||----------------|-5-x-4-x-3------|---------------|-x-x-5S4-x--------|| 
||o---------------|---x---x--------|---------------|-x-x-5S4-x-------o|| 
||--0-0-2-3--2--0-|---x---x---3--2-|-0-0-2-3--2--0-|-x-x-----x-3S2----|| 


   2:24 
                                                              D.S. 
    PM--|              PM--| 
                                         4x 
||-------------------|-------------------||-----------|-------------| 
||o------------------|------------------o||-----------|-------------| 
||-------------------|-------------------||-----------|-------------| 
||-------------------|-------------------||-----------|-------------| 
||o-------5S4---7--6-|-------8S7---7--6-o||-8------8--|-7----8--7---| 
||--0-0-0-3S2-0-5--4-|-0-0-0-6S5-0-5--4--||-6------6--|-5----6--5---| 


   3:21 
    Gtr I 
    PM|                                    PM 
                                                                          4x 
||------------------|------------------|-----------------|----------------|| 
||o-----------------|------------------|-----------------|---------------o|| 
||------------------|------------------|-----------------|----------------|| 
||------9---9S7---9-|-(9)-9-9----------|-----9---9S7---9-|-(9)-9-9S10-----|| 
||o-----7---7S5---7-|-(7)-7-7----------|-----7---7S5---7-|-(7)-7-7S=8----o|| 
||--0-0-------------|----------2S3-3S2-|-0-0-------------|----------------|| 
| 
|   Gtr II 
|   PM----|                              PM----|               PM 
|                                                                         4x 
||------------------|------------------|-----------------|----------------|| 
||o-----------------|------------------|-----------------|---------------o|| 
||------------------|------------------|-----------------|----------------|| 
||------------------|------------------|-----------------|-------9S10-----|| 
||o---------5S4-4-2-|-(2)---9--6S==8---|---------5S4-4-2-|-(2)---7S=8----o|| 
||--0-0-0-0-3S2-2-0-|-(0)-0-7--4S==6---|-0-0-0-0-3S2-2-0-|-(0)-0----------|| 


   3:38 
    Gtrs I, II 
    TP   TP TP   TP   TP TP   TP   TP TP        TP TP 
||-------------|------------|------------|--------------|| 
||o------------|------------|------------|-------------o|| 
||-------------|------------|------------|--------------|| 
||-------------|------------|------------|--------------|| 
||o------2--3--|------2--3--|------2--3--|-0-----------o|| 
||--0----------|-0----------|-0----------|------3--2----|| 


 3:54 
|--------------|---------------|--------------|---------------| 
|--------------|---------------|--------------|---------------| 
|--------------|---------------|--------------|---------------| 
|--------------|-7--8-7--------|--------------|-7--8-7--------| 
|-7--9-7--6-7--|-5--6-5--8-10--|-7--9-7--6-7--|-5--6-5--8-10--| 
|-5--7-5--4-5--|---------6--8--|-5--7-5--4-5--|---------6--8--| 


 3:58 
                             PM                                 PM 
|----------------|-----------------|----------------|----------------| 
|----------------|-----------------|----------------|----------------| 
|----------------|-----------------|----------------|----------------| 
|----------------|-----------------|----------------|-------------7--| 
|--------3p2p0---|-------------3p2-|--------3p2p0---|-------------5--| 
|-0--0-0-------2-|-(2)-3--5--0-----|-0--0-0-------2-|-(2)-3--5--0----| 


                             PM 
|----------------|-----------------|----------------|---------------| 
|----------------|-----------------|----------------|---------------| 
|----------------|-----------------|----------------|---------------| 
|----------------|-----------------|--------3p2p0---|--------8---7--| 
|--------3p2p0---|-------------3p2-|--------------2-|-(2)-3--6---5--| 
|-0--0-0-------2-|-(2)-3--5--0-----|-0--0-0---------|---------------| 


                                                                      5x 
||----------------|----------------|---------------|------------------|| 
||o---------------|----------------|---------------|-----------------o|| 
||----------------|-5---4---3------|---------------|------------------|| 
||----------------|-5-x-4-x-3------|---------------|-x-x-5S4-x--------|| 
||o---------------|---x---x--------|---------------|-x-x-5S4-x-------o|| 
||--0-0-2-3--2--0-|---x---x---3--2-|-0-0-2-3--2--0-|-x-x-----x-3S2----|| 


  TP TP TPTP    TP TP TPTP    TP TP TPTP    TP TP 
|-------------|-------------|-------------|-------------| 
|-------------|-------------|-------------|-------------| 
|-------------|-------------|-------------|-------------| 
|-------------|-------------|-------------|-------4S5---| 
|-------------|-------------|-------------|-------2S3---| 
|-0--0--3-2---|-0--0--2-3---|-0--0--3-2---|-0--0--------| 


   4:41 
                                                                      3x 
||----------------|----------------|---------------|------------------|| 
||o---------------|----------------|---------------|-----------------o|| 
||----------------|-5---4---3------|---------------|------------------|| 
||----------------|-5-x-4-x-3------|---------------|-x-x-5S4-x--------|| 
||o---------------|---x---x--------|---------------|-x-x-5S4-x-------o|| 
||--0-0-2-3--2--0-|---x---x---3--2-|-0-0-2-3--2--0-|-x-x-----x-3S2----|| 


    PM--|              PM--| 
                                         4x 
||-------------------|-------------------||-----------|-------------| 
||o------------------|------------------o||-----------|-------------| 
||-------------------|-------------------||-----------|-------------| 
||-------------------|-------------------||-----------|-------------| 
||o-------5S4---7--6-|-------8S7---7--6-o||-8------8--|-7----8--7---| 
||--0-0-0-3S2-0-5--4-|-0-0-0-6S5-0-5--4--||-6------6--|-5----6--5---| 


 4:53 
|--------------|---------------|--------------|---------------| 
|--------------|---------------|--------------|---------------| 
|--------------|---------------|--------------|---------------| 
|--------------|-7--8-7--------|--------------|-7--8-7--------| 
|-7--9-7--6-7--|-5--6-5--8-10--|-7--9-7--6-7--|-5--6-5--8-10--| 
|-5--7-5--4-5--|---------6--8--|-5--7-5--4-5--|---------6--8--| 


  Gtr III 
                             PM                                 PM 
|----------------|-----------------|----------------|----------------| 
|----------------|-----------------|----------------|----------------| 
|----------------|-----------------|----------------|----------------| 
|----------------|-----------------|----------------|-------------7--| 
|--------3p2p0---|-------------3p2-|--------3p2p0---|-------------5--| 
|-0--0-0-------2-|-(2)-3--5--0-----|-0--0-0-------2-|-(2)-3--5--0----| 


                             PM 
|----------------|-----------------|----------------|---------------| 
|----------------|-----------------|----------------|---------------| 
|----------------|-----------------|----------------|---------------| 
|----------------|-----------------|--------3p2p0---|--------8---7--| 
|--------3p2p0---|-------------3p2-|--------------2-|-(2)-3--6---5--| 
|-0--0-0-------2-|-(2)-3--5--0-----|-0--0-0---------|---------------| 


  Gtrs I, II 
                             PM                                 PM 
|----------------|-----------------|----------------|----------------| 
|----------------|-----------------|----------------|----------------| 
|----------------|-----------------|----------------|----------------| 
|----------------|-----------------|----------------|-------------7--| 
|--------3p2p0---|-------------3p2-|--------3p2p0---|-------------5--| 
|-0--0-0-------2-|-(2)-3--5--0-----|-0--0-0-------2-|-(2)-3--5--0----| 


                             PM 
|----------------|-----------------|----------------|---------------| 
|----------------|-----------------|----------------|---------------| 
|----------------|-----------------|----------------|---------------| 
|----------------|-----------------|--------3p2p0---|--------8---7--| 
|--------3p2p0---|-------------3p2-|--------------2-|-(2)-3--6---5--| 
|-0--0-0-------2-|-(2)-3--5--0-----|-0--0-0---------|---------------| 


                                                                    1/4 
    PM--|              PM--| 
                                         4x 
||-------------------|-------------------||-----------|------------|------*| 
||o------------------|------------------o||-----------|------------|------*| 
||-------------------|-------------------||-----------|------------|------*| 
||-------------------|-------------------||-----------|------------|------*| 
||o-------5S4---7--6-|-------8S7---7--6-o||-8------8--|-7----8--7--|-2----*| 
||--0-0-0-3S2-0-5--4-|-0-0-0-6S5-0-5--4--||-6------6--|-5----6--5--|-0----*| 



Legenda da tablatura 
---------------- 
 h   - hammer-on 
 p   - pull-off 
 b   - bend 
 pb  - pre-bend 
 r   - bend release  
 /  - slide into  
 s   - slide 
 S   - slide 
  - natural harmonic 
n  - artificial harmonic 
n(n) - tapped harmonic 
 ~   - vibrato 
 tr  - trill 
 T   - tap 
 TP  - trem. picking 
 PM  - palm muting 
n/  - tremolo bar dip; n = amount to dip 
 n  - tremolo bar down 
 n/  - tremolo bar up 
/n  - tremolo bar inverted dip 
 =   - hold bend; also acts as connecting device for hammers/pulls 
   - volume swell (louder/softer) 
 x   - on rhythm slash represents muted slash 
 o   - on rhythm slash represents single note slash 
		  

auto scroll beats size up size down change color hide chords drawings
tab show chords e-chords YouTube Clip e-chords hide all tabs e-chords go to top tab

share