Tame Impala

Demos Album

Tame Impala

tabs

by  ANDRSOUZA

save to print version add songbook text version e-mail correct tuner
chordsukulelecavacokeyboardtabbassdrumsharmonicaflute Guitar Pro
close

there isn't a video lesson for this song

chords

Demos Album

	  		

Verse: 
"Well the air is still but we are moving, 
I like the wind so wind the windows down" 
e|-----------------| 
B|-3--3-3-1/3-1----| 
G|-4--4-4-2/4-2----| x8 
D|-5--5-5-3/5-3----| 
A|-5--5-5-3/5-3----| 
E|-----------------| 


Just before the Chorus, you 
do a couple of muted strums: 
e|-X-X--X-X-X-X-X--| 
B|-X-X--X-X-X-X-X--| 
G|-X-X--X-X-X-X-X--| 
D|-X-X--X-X-X-X-X--| 
A|-X-X--X-X-X-X-X--| 
E|-X-X--X-X-X-X-X--| 


Chorus: 
"Oh, 
See my flow, 
So we all" 
e|-----------------5.-5.-5.-5-5-----3--3--3-3-3-3-3-3-3-3-3-3--| 
B|-6--6-6-6--6-6---7.-7.-7.-7-7h8p7-5--5--5-5-5-6-6-5-6-5-6-5--| 
G|-7--7-7-7--7-7---7.-7.-7.-7-7-----5--5--5-5-5-5-5-5-5-5-5-5--| x4 
D|-8--8-8-8--8-8---7.-7.-7.-7-7-----5--5--5-5-5-5-5-5-5-5-5-5--| 
A|-8--8-8-8--8-8---5.-5.-5.-5-5-----3--3--3-3-3-3-3-3-3-3-3-3--| 
E|-------------------------------------------------------------| 


Variation in Verse: 
"And now come back down..." 
e|-----------------1---------------------| 
B|-3--3-3-1/3-1----3--3--1/3-1-----------| 
G|-4--4-4-2/4-2----3--4--2/4-2-----------| 
D|-5--5-5-3/5-3----3--5--3/5-3-----------| 
A|-5--5-5-3/5-3----1--5--3/5-3-----------| 
E|------------------------------3-3-3-3--| 


Verse: 
"...again, 
Makes me wonder how I ever felt so good" 
e|------------------------| 
B|-3--3-3-1/3-1-----------| 
G|-4--4-4-2/4-2-----------| x6 
D|-5--5-5-3/5-3-----------| 
A|-5--5-5-3/5-3-----------| 
E|---------------3-3-3-3--| 


Pre-Chorus muted strums: 
e|-X-X--X-X-X-X-X--| 
B|-X-X--X-X-X-X-X--| 
G|-X-X--X-X-X-X-X--| 
D|-X-X--X-X-X-X-X--| 
A|-X-X--X-X-X-X-X--| 
E|-X-X--X-X-X-X-X--| 


Chorus: 
"Oh, 
So alone, 
Feel it all, 
Flows down, 
Oh" 
e|-----------------5.-5.-5.-5-5-----3--3--3-3-3-3-3-3-3-3-3-3--| 
B|-6--6-6-6--6-6---7.-7.-7.-7-7h8p7-5--5--5-5-5-6-6-5-6-5-6-5--| 
G|-7--7-7-7--7-7---7.-7.-7.-7-7-----5--5--5-5-5-5-5-5-5-5-5-5--| x8 
D|-8--8-8-8--8-8---7.-7.-7.-7-7-----5--5--5-5-5-5-5-5-5-5-5-5--| 
A|-8--8-8-8--8-8---5.-5.-5.-5-5-----3--3--3-3-3-3-3-3-3-3-3-3--| 
E|-------------------------------------------------------------| 


Pre-Solo: 
e|----------------------------------------------------------------------------------| 
B|-6--6--6--6--6-6-6-6-6-6-6--4--4--4--4--4-4-4-4-4-4-4--4--4--4--4--4-4-4-4-4-4-4--| 
G|-7--7--7--7--7-7-7-7-7-7-7--5--5--5--5--5-5-5-5-5-5-5--5--5--5--5--5-5-5-5-5-5-5--| 
D|-8--8--8--8--8-8-8-8-8-8-8--6--6--6--6--6-6-6-6-6-6-6--6--6--6--6--6-6-6-6-6-6-6--| 
A|-8--8--8--8--8-8-8-8-8-8-8--6--6--6--6--6-6-6-6-6-6-6--6--6--6--6--6-6-6-6-6-6-6--| 
E|----------------------------------------------------------------------------------| 

e|-4-----------4-4-4-4-4-4----------------4---4----| 
B|-4-----------4-4-4-4-4-4-4------------------4----| 
G|-5-----------5-5-5-5-5-5-5----------------5---5--| 
D|-6-----------------------6--------------------6--| 
A|-6-----------------------------------------------| 
E|-4--4--4--4-----------------4--4--4--4-----------| 


Guitar Solo: 
Guitar 1 keeps the rhythm 
going quietly in the background: 
e|-----------------| 
B|-----------------| 
G|-----------------| x6 
D|-----------------| 
A|-----------------| 
E|-4-4-4-4-4-4-4-4-| 

Guitar 2 plays this Solo: 
e|---------------------------------------------------------------| 
B|---------------------------------------------------------------| 
G|-6~~~~~~~~~~~~~~~~-6-b8----r6------5~~~~~~~~~~~~~~~~-b6~~~~~~~~| 
D|------------------------------3--------------------------------| 
A|------------------------------3--------------------------------| 
E|---------------------------------------------------------------| 


The vibrato in the bend gets quite heavy in this part: 
e|----------------------------------------------------------------| 
B|----------------------------------------------------------------| 
G|-5/11~~~~~~11b13~~~~~~~~~~~~~~~~~~~~~~~~~~~~~~~~----------------| 
D|------------------------------------------------13\----3--------| 
A|-------------------------------------------------------3--------| 
E|----------------------------------------------------------------| 

Guitar 1 starts playing a bit of lead: 
e|----------------------------------------------------------------| 
B|----------------------------------------------------------------| 
G|-------------------5/6------------5/6-6b8-----------------------| 
D|----------------------------------------------------------------| 
A|----------------------------------------------------------------| 
E|----------------------------------------------------------------| 


Guitar 1 starts playing this rhythm quietly: 
e|-----------------------------------| 
B|-----------------------------------| 
G|-----------------------------------| x5 
D|-----6------6----------------------| 
A|-4h6----4h6------------------------| 
E|-----------------2.-2.-2.-2-/4.----| 

Guitar 2: 
e|--------------------------------------------------------------| 
B|--------------------------------------------------------------| 
G|-3--------/---------------------------------------------------| 
D|-3--------/---------------------------------------------------| 
A|-3--------/---------------------------------------------------| 
E|-----------------------4\0----0/4----------------4\0----/4----| 

e|----------------------------------------------------------| 
B|----------------------------------------------------------| 
G|-5-b6----b8------12-b13----14-b15----15-b17------17r15----| 
D|----------------------------------------------------------| 
A|----------------------------------------------------------| 
E|----------------------------------------------------------| 


Guitar 1 stops playing the rhythm above and guitar 2 plays this: 
e|------------------------------------| 
B|------------------------------------| 
G|-15-/20---20-\17----17b18--r17------| 
D|------------------------------------| 
A|------------------------------------| 
E|------------------------------------| 


Guitar 1 plays these chords, guitar 2 stops: 
e|-4------------------| 
B|-6--------4----2----| 
G|-6--------5----3----| 
D|-6--------6----4----| 
A|-4--------6----4----| 
E|--------------------| 


Guitar 2 starts again after the above chords: 
e|---------------------------| 
B|---------------------------| 
G|-18-\17----20-\8--8-/13----| 
D|---------------------------| 
A|---------------------------| 
E|---------------------------| 

Guitar 1 plays this root note behind the lead: 
e|---------------------------------| 
B|---------------------------------| 
G|---------------------------------| 
D|---------------------------------| 
A|---------------------------------| 
E|-4-4-4-4-4-4-4-4-4-4-4-4-4-4-4-4-| 


Bridge: 
"I'm already gone, 
I'm already gone, 
Wake me when you're done, 
Let me fill your flow" 
Guitar 1: 
e|-4--------------------------------------------------| 
B|-6--------4----2------------------------------------| 
G|-6--------5----3------------------------------------| x4 
D|-6--------6----4------------------------------------| 
A|-4--------6----4------------------------------------| 
E|--------------------4-4-4-4-4-4-4-4-4-4-4-4-4-4-4-4-| 

Guitar 2 plays these leads every time the G# 
root note is played 16 times as tabbed above: 
e|-----------------------| 
B|-9---------------------| 
G|------8----8b10--------| 
D|-----------------------| 
A|-----------------------| 
E|-----------------------| 

e|---------------------------9/11--| 
B|---------------------------------| 
G|-8-/9-\8--------11\8-------------| 
D|---------------------------------| 
A|---------------------------------| 
E|---------------------------------| 

Then guitar 2 plays these during the last two chord 
sequences (not just the root note part): 
e|---12------------------------------------------4--| 
B|---------4---------2---2/4-----2-2-2-2/4----------| 
G|-----------5-----3-----3/5-----3-3-3-3/5----------| 
D|---------------4-------4/6-----4-4-4-4/6----------| 
A|--------------------------------------------------| 
E|--------------------------------------------------| 

e|-4------------------------------------------------| 
B|-----------------4---2-------2/4------------4-----| 
G|----6--6------5---------3----3/5------------6b8---| 
D|------------6-------------4--4/6------------------| 
A|--------------------------------------------------| 
E|--------------------------------------------------| 


Chorus: 
"Feel my flow, 
Feel at home, 
Feel alone" 
e|-----------------5.-5.-5.-5-5-----3--3--3-3-3-3-3-3-3-3-3-3--| 
B|-6--6-6-6--6-6---7.-7.-7.-7-7h8p7-5--5--5-5-5-6-6-5-6-5-6-5--| 
G|-7--7-7-7--7-7---7.-7.-7.-7-7-----5--5--5-5-5-5-5-5-5-5-5-5--| x6 
D|-8--8-8-8--8-8---7.-7.-7.-7-7-----5--5--5-5-5-5-5-5-5-5-5-5--| 
A|-8--8-8-8--8-8---5.-5.-5.-5-5-----3--3--3-3-3-3-3-3-3-3-3-3--| 
E|-------------------------------------------------------------| 

End with a drum solo! 


************************************ 

| /   slide up 
| \   slide down 
| h   hammer-on 
| p   pull-off 
| ~   vibrato 
| +   harmonic 
| x   Mute note 
| .   staccato 
| b   Bend 
| pb  Pre-bend 
| br  Bend release 
| pbr Pre-bend release 
| brb Bend release bend 

************************************ 

-------------------------------------------------------------------------------------- 
                                       Track 02 
                                  Latenight Moonlight 
-------------------------------------------------------------------------------------- 

Verse: 
Acoustic guitar part: 
"Thought of something in the moonlight, what do you think it was? 
Thought of something in the moonlight, forgot it by the morning sun" 
e|---------------------------------------5--5--5-5---5-5---5-5--5--5--5-5---5-5----| 
B|-3-3--3--3-3-3-3-3--1-1--1--1-1-1-1-1--7--7--7-5h7-5-5h7-5-5--7--7--7-5h7-5-5h7--| 
G|-4-4--4--4-4-4-4-4--2-2--2--2-2-2-2-2--7--7--7-5h7-5-5h7-5-5--7--7--7-5h7-5-5h7--| x2 
D|-5-5--5--5-5-5-5-5--3-3--3--3-3-3-3-3--7--7--7-5h7-5-5h7-5-5--7--7--7-5h7-5-5h7--| 
A|-5-5--5--5-5-5-5-5--3-3--3--3-3-3-3-3--5--5--5-5---5-5---5-5--5--5--5-5---5-5----| 
E|---------------------------------------------------------------------------------| 


Chorus: 
Distorted guitar part: 
"Whispering the sweeter nothings, feel you high above" 
e|-----------------------------------------------------------------------------------| 
B|-----------------------------------------------------------------------------------| 
G|-----------------------------------------------------------------------------------| 
D|-7-7-7--7-7-7-7-7--7--5-5-5--5-5-5-5-5--5--8-8-8--8-8-8-8-8--8-8-8-8-8--8-8-8-8-8--| 
A|-7-7-7--7-7-7-7-7--7--5-5-5--5-5-5-5-5--5--8-8-8--8-8-8-8-8--8-8-8-8-8--8-8-8-8-8--| 
E|-5-5-5--5-5-5-5-5--5--3-3-3--3-3-3-3-3--3--6-6-6--6-6-6-6-6--6-6-6-6-6--6-6-6-6-6--| 


"Now I'm your love" 
e|---------------------------------------------------------------------------| 
B|---------------------------------------------------------------------------| 
G|---------------------------------------------------------------------------| x2 
D|-12--12-12-12--12-12-12--12-12-12--12-12-12--12-12-12--12-12-12--12-12-12--| 
A|-12--12-12-12--12-12-12--12-12-12--12-12-12--12-12-12--12-12-12--12-12-12--| 
E|-10--10-10-10--10-10-10--10-10-10--10-10-10--10-10-10--10-10-10--10-10-10--| 


Verse: 
Acoustic guitar part: 
"Tell me why you think I love you, and I'll tell you if you're right, 
Told you all my darkest secrets, but I think I lied" 
e|---------------------------------------5--5--5-5---5-5---5-5--5--5--5-5---5-5----| 
B|-3-3--3--3-3-3-3-3--1-1--1--1-1-1-1-1--7--7--7-5h7-5-5h7-5-5--7--7--7-5h7-5-5h7--| 
G|-4-4--4--4-4-4-4-4--2-2--2--2-2-2-2-2--7--7--7-5h7-5-5h7-5-5--7--7--7-5h7-5-5h7--| x2 
D|-5-5--5--5-5-5-5-5--3-3--3--3-3-3-3-3--7--7--7-5h7-5-5h7-5-5--7--7--7-5h7-5-5h7--| 
A|-5-5--5--5-5-5-5-5--3-3--3--3-3-3-3-3--5--5--5-5---5-5---5-5--5--5--5-5---5-5----| 
E|---------------------------------------------------------------------------------| 


Chorus: 
Distorted guitar part: 
"Whispering the sweeter nothings, feel you high above" 
e|-----------------------------------------------------------------------------------| 
B|-----------------------------------------------------------------------------------| 
G|-----------------------------------------------------------------------------------| 
D|-7-7-7--7-7-7-7-7--7--5-5-5--5-5-5-5-5--5--8-8-8--8-8-8-8-8--8-8-8-8-8--8-8-8-8-8--| 
A|-7-7-7--7-7-7-7-7--7--5-5-5--5-5-5-5-5--5--8-8-8--8-8-8-8-8--8-8-8-8-8--8-8-8-8-8--| 
E|-5-5-5--5-5-5-5-5--5--3-3-3--3-3-3-3-3--3--6-6-6--6-6-6-6-6--6-6-6-6-6--6-6-6-6-6--| 

A wah guitar plays this lead in the background: 
e|---------------------------------------------------| 
B|---------------------------------------------------| 
G|-7-b9------5~~~~~~~----5-7.-7b9------7~~~~7~~~~~~~~| 
D|-------------------5h7-----------------------------| 
A|---------------------------------------------------| 
E|---------------------------------------------------| 


"Now I'm your love" 
e|---------------------------------------------------------------------------| 
B|---------------------------------------------------------------------------| 
G|---------------------------------------------------------------------------| x2 
D|-12--12-12-12--12-12-12--12-12-12--12-12-12--12-12-12--12-12-12--12-12-12--| 
A|-12--12-12-12--12-12-12--12-12-12--12-12-12--12-12-12--12-12-12--12-12-12--| 
E|-10--10-10-10--10-10-10--10-10-10--10-10-10--10-10-10--10-10-10--10-10-10--| 

Wah guitar: 
e|----------------------------------------------------| 
B|-10~10~10~10~10~10~10~10~10~10~10~12b14----12b13----| 
G|----------------------------------------------------| 
D|----------------------------------------------------| 
A|----------------------------------------------------| 
E|----------------------------------------------------| 


"Oh, you know it's true" 
e|-----------------------------------------------------| 
B|-----------------------------------------------------| 
G|-----------------------------------------------------| 
D|-8--8-8-8--8-8-8--8-8-8--8-8-8--8-8-8--8-8-8--8-8-8--| 
A|-8--8-8-8--8-8-8--8-8-8--8-8-8--8-8-8--8-8-8--8-8-8--| 
E|-6--6-6-6--6-6-6--6-6-6--6-6-6--6-6-6--6-6-6--6-6-6--| 

Wah guitar: 
e|--------------------| 
B|--------------------| 
G|-7~~~~-7b9---7b9----| 
D|--------------------| 
A|--------------------| 
E|--------------------| 


"How I love you" 
e|---------------------------------------------------------------------------| 
B|---------------------------------------------------------------------------| 
G|---------------------------------------------------------------------------| x2 
D|-12--12-12-12--12-12-12--12-12-12--12-12-12--12-12-12--12-12-12--12-12-12--| 
A|-12--12-12-12--12-12-12--12-12-12--12-12-12--12-12-12--12-12-12--12-12-12--| 
E|-10--10-10-10--10-10-10--10-10-10--10-10-10--10-10-10--10-10-10--10-10-10--| 

Wah guitar: 
e|-----------------------------------------------| 
B|-----------------------------------------------| 
G|-7p5--------7b9-7-5----------------------------| 
D|-----7--5h7------------7--------7----7----7----| 
A|-----------------------------------------------| 
E|-----------------------------------------------| 


First guitar Solo: 
The simulatenous bends on the G and D strings in the first part of the solo 
are played by first bending the G string up to the 14th fret. By doing this 
you will have also bent the D string up half a fret unintentionally. Then 
you simply pick each string while you have the strings bent. Jimi Hendrix 
used this technique in his solos a fair bit. 
e|------------------------------------------------| 
B|------------------------------------------------| 
G|-12-b14-------------14------14------14r12-10~---| 
D|-----------12pb12.5----12.5----12.5-------------| 
A|------------------------------------------------| 
E|------------------------------------------------| 

e|----------------------10-------------------------------------------------------| 
B|-13b15.-13b15.-13b15-----13-11--------------11------11-13-11----11-------------| 
G|-------------------------------12--12p10h12-----12-----------12----12-10.--12--| 
D|-------------------------------------------------------------------------------| 
A|-------------------------------------------------------------------------------| 
E|-------------------------------------------------------------------------------| 

e|------------------------| 
B|------------------------| 
G|------------------------| x4 
D|------------------------| 
A|----------8~-------8~---| 
E|-10.-10.-----10-10------| 

e|-----------------------------| 
B|-----------------------------| 
G|--------10-------------10----| 
D|------------12---------------| 
A|-----------------------------| 
E|-10--10---------10--10-------| 

e|----------------------------------------------------| 
B|-------11-13-13b15-15-15-15r13-11----------11-13b15-| 
G|-10-12----------------------------12-10-12----------| 
D|----------------------------------------------------| 
A|----------------------------------------------------| 
E|----------------------------------------------------| 

e|----------------------------------------------| 
B|-------11-13-13b15-15-15-15r13-11-------11----| 
G|-10-12----------------------------12-10----12-| 
D|----------------------------------------------| 
A|----------------------------------------------| 
E|----------------------------------------------| 

e|-13b15.-15.-15.-15r13-------------------------------------------------| 
B|-----------------------11------------11-------------------------------| 
G|----------------------------12-10-12-----12-10----10-12b14-12-10------| 
D|-----------------------------------------------12----------------12---| 
A|----------------------------------------------------------------------| 
E|----------------------------------------------------------------------| 

e|-13b15.-15.-15.-15r13-------10-h13p10----10-h13p10----10-h13p10----10-h13p10----| 
B|-----------------------11-------------13-----------13-----------13-----------13-| 
G|--------------------------------------------------------------------------------| 
D|--------------------------------------------------------------------------------| 
A|--------------------------------------------------------------------------------| 
E|--------------------------------------------------------------------------------| 

e|-10-h13p10----10-h13p10----10-h13p10----10-h13p10----| 
B|-----------13-----------13-----------13-----------13-| 
G|-----------------------------------------------------| 
D|-----------------------------------------------------| 
A|-----------------------------------------------------| 
E|-----------------------------------------------------| 

This bit is played really fast: 
e|-10h13p10-10h13p10-10h13p10-10h13p10-10h13p10-10h13p10-10h13p10-10h13p10--| 
B|--------------------------------------------------------------------------| 
G|--------------------------------------------------------------------------| x2 
D|--------------------------------------------------------------------------| 
A|--------------------------------------------------------------------------| 
E|--------------------------------------------------------------------------| 

e|-13b15.-13.-10---8h10p8-8h10p8-8h10p8-8h10p8-8h10p8-8h10p8-8h10p8-8h10p8-| 
B|-------------------------------------------------------------------------| 
G|-------------------------------------------------------------------------| 
D|-------------------------------------------------------------------------| 
A|-------------------------------------------------------------------------| 
E|-------------------------------------------------------------------------| 

e|-8h10p8-8h10p8-8h10p8-8h10p8-8h10p8-8h10p8-8h10p8-8h10p8-| 
B|---------------------------------------------------------| 
G|---------------------------------------------------------| 
D|---------------------------------------------------------| 
A|---------------------------------------------------------| 
E|---------------------------------------------------------| 

e|-10b13-8-----8h10p8-8h10p8-8h10p8-8h10p8-8h10p8-8h10p8-8h10p8-8h10p8-| 
B|---------10----------------------------------------------------------| 
G|---------------------------------------------------------------------| 
D|---------------------------------------------------------------------| 
A|---------------------------------------------------------------------| 
E|---------------------------------------------------------------------| 

e|----13----13----13----13----13----13-----------| 
B|-16-16b18-16b18-16b18-16b18-16b18-16b18-16b18--| 
G|-----------------------------------------------| 
D|-----------------------------------------------| 
A|-----------------------------------------------| 
E|-----------------------------------------------| 

e|-------------------------------------------------------------------------| 
B|--------------------------------------13b15.-13b15.-13b15----------------| 
G|-------10~--10-12-12b15-12-10----10--0--------------------12-10----10-12-| 
D|-10-12------------------------12--------------------------------12-------| 
A|-------------------------------------------------------------------------| 
E|-------------------------------------------------------------------------| 


Bridge: 
Throughout this section another guitar makes spacey noises by using a slide and sliding 
into random notes high on the fretboard. The notes aren't important, just the sound 
that it makes, so I haven't bothered to tab them out. Make sure to add a lot of 
delay if you decide to play that bit. 
e|------------------------------------------------------------------| 
B|------------------------------------------------------------------| 
G|------------------------------------------------------------------| 
D|-12--12-12-12--12-12-12--12-12-12--12-12-12--12--12-12-12--12-12--| 
A|-12--12-12-12--12-12-12--12-12-12--12-12-12--12--12-12-12--12-12--| 
E|-10--10-10-10--10-10-10--10-10-10--10-10-10--10--10-10-10--10-10--| 


e|--------------------------6----| 
B|--------------------------6----| 
G|--------------------------7----| 
D|-8-8-8--------------------8----| 
A|-8-8-8--------------------8----| 
E|-6-6-6------6-6-6-6-6-6-6-6----| 


e|-----------------| 
B|-----------------| 
G|-----------------| x6 
D|-----------------| 
A|-----------------| 
E|-6-6-6-6-6-6-6-6-| 


Slidey riff: 
e|---------------------------------------------------------------------------------------| 
B|---------------------------------------------------------------------------------------| 
G|-10\7--------10\7--------8/7----10/12----7\6----10/12----12-12-12-12-12-12-12-12-12-12-| 
D|---------------------------------------------------------------------------------------| 
A|---------------------------------------------------------------------------------------| 
E|---------------------------------------------------------------------------------------| 

Then with a fuzz tone: 
e|---------------------------------------------------------------------------------------| 
B|---------------------------------------------------------------------------------------| 
G|-10\7--------10\7--------8/7----10/12----7\6----10/12----12-12-12-12-12-12-12-12-12-12-| 
D|---------------------------------------------------------------------------------------| 
A|---------------------------------------------------------------------------------------| 
E|---------------------------------------------------------------------------------------| 

Another guitar keeps playing this note as the rhythm: 
e|-----------------| 
B|-----------------| 
G|-----------------| x12 
D|-----------------| 
A|-----------------| 
E|-6-6-6-6-6-6-6-6-| 


Then incorporate the rhythm with the riff: 
e|-------------------------------------------------| 
B|-------------------------------------------------| 
G|---7/8--8/10---7/8--8/10---7/8--8/10---7/8--8/10-| 
D|-------------------------------------------------| 
A|-------------------------------------------------| 
E|-6-----------6-----------6-----------6-----------| 


e|-------------------------------------------------| 
B|---6/8--8/9----6/8--8/9----6/8--8/9----6/8--8/11-| 
G|-------------------------------------------------| 
D|-------------------------------------------------| 
A|-------------------------------------------------| 
E|-6-----------6-----------6-----------6-----------| 


Second guitar Solo: 
e|-----------------------------------------------------------------------------| 
B|-11p9\8--9p8\6--8p6\4--6p4\3--4p3-4p3--11p9\8--9p8\6--8p6\4--6p4\3--4p3-4p3--| 
G|-----------------------------------------------------------------------------| 
D|-----------------------------------------------------------------------------| 
A|-----------------------------------------------------------------------------| 
E|-----------------------------------------------------------------------------| 

e|-------------------------------------------------| 
B|-3/4--4/6--6\4--4\3--3---3/4--4/6--6\4--4\3--3---| 
G|-------------------------------------------------| 
D|-------------------------------------------------| 
A|-------------------------------------------------| 
E|-------------------------------------------------| 

e|-------------------------------------------------| 
B|-3/4--4/6--6\4--4\2--2---2/4--4/6--6\4--4\2--2---| 
G|-------------------------------------------------| 
D|-------------------------------------------------| 
A|-------------------------------------------------| 
E|-------------------------------------------------| 

e|---------------------------------------------------------------------------| 
B|-1/2--2/4--4-4\3--3---3--1/2--2/4--4-4\3--3---3--1/2--2/4--4-4\3---3--3----| 
G|---------------------------------------------------------------------------| 
D|---------------------------------------------------------------------------| 
A|---------------------------------------------------------------------------| 
E|---------------------------------------------------------------------------| 

e|-------------------| 
B|-4--3--2--1--1-----| 
G|----------------3--| 
D|-------------------| 
A|-------------------| 
E|-------------------| 


Vocal part: 
"Will I ever find your love? Tell me before the break of day, 
I was passing down your fair, latenight moonlight fades away, 
Latenight moonlight fades away" 
e|------1--3--6----10----| 
B|-1----1--3--6----10----| 
G|-2----1--3--6----10----| x3 
D|-3---------------------| 
A|-3---------------------| 
E|-----------------------| 


"Latenight moonlight fades away" 
Start strumming the chords: 
e|-----------------1-1-1-1-3-3-3-3-6-6-6-6-6-6-6-6-10-10-10-10-10-10-10-10-| 
B|-1-1-1-1-1-1-1-1-1-1-1-1-3-3-3-3-6-6-6-6-6-6-6-6-10-10-10-10-10-10-10-10-| 
G|-2-2-2-2-2-2-2-2-1-1-1-1-3-3-3-3-6-6-6-6-6-6-6-6-10-10-10-10-10-10-10-10-| 
D|-3-3-3-3-3-3-3-3---------------------------------------------------------| 
A|-3-3-3-3-3-3-3-3---------------------------------------------------------| 
E|-------------------------------------------------------------------------| 


e|-----------------1-1-1-1-3-3-3-3-6-6-6-6-6-6-6-6-6-6-6-6-6-6-6-6-| 
B|-1-1-1-1-1-1-1-1-1-1-1-1-3-3-3-3-6-6-6-6-6-6-6-6-6-6-6-6-6-6-6-6-| 
G|-2-2-2-2-2-2-2-2-1-1-1-1-3-3-3-3-6-6-6-6-6-6-6-6-6-6-6-6-6-6-6-6-| 
D|-3-3-3-3-3-3-3-3-------------------------------------------------| 
A|-3-3-3-3-3-3-3-3-------------------------------------------------| 
E|-----------------------------------------------------------------| 


e|-6-6-6-6-6-6-6-6-6-6-6-6-6-6-6-6-6-6-6-6-| 
B|-6-6-6-6-6-6-6-6-6-6-6-6-6-6-6-6-6-6-6-6-| 
G|-6-6-6-6-6-6-6-6-6-6-6-6-6-6-6-6-6-6-6-6-| 
D|-----------------------------------------| 
A|-----------------------------------------| 
E|-----------------------------------------| 


Power chord section: 
e|--------------------------------------------------------------------------| 
B|--------------------------------------------------------------------------| 
G|--------------------------------------------------------------------------| 
D|-88-8-8-8-8-8-8-8-88-8-8-8-8-8-8-8-88-8-8-8-8-8-8-8-8-88-8-8-8-88888--10--| 
A|-88-8-8-8-8-8-8-8-88-8-8-8-8-8-8-8-88-8-8-8-8-8-8-8-8-88-8-8-8-88888--10--| 
E|-66-6-6-6-6-6-6-6-66-6-6-6-6-6-6-6-66-6-6-6-6-6-6-6-6-66-6-6-6-66666---8--| 


Main power chord riff: 
e|--------------------------------------| 
B|--------------------------------------| 
G|--------------------------------------| x6 
D|-8-8-8-88-8-8-8-88-8-8-8-88-8-8-8-10--| 
A|-8-8-8-88-8-8-8-88-8-8-8-88-8-8-8-10--| 
E|-6-6-6-66-6-6-6-66-6-6-6-66-6-6-6--8--| 


e|---------------------------------| 
B|---------------------------------| 
G|---------------------------------| 
D|-8-8-8-88-8-8-8-88-88-8-88-88-8--| 
A|-8-8-8-88-8-8-8-88-88-8-88-88-8--| 
E|-6-6-6-66-6-6-6-66-66-6-66-66-6--| 


Outro: 
Back to the Chorus chord progression, but without vocals 
and the first three power chords turned into major chords: 
e|-----------------------------------------------------------------------------------------| 
B|-5--5--555-5-5--5-5-3-3-3--33-3-3-3--3--6-6-6--6-6-6--6-6-6--6-6-6--6-6-6-6--6-6-6--6--6-| 
G|-6--6--666-6-6--6-6-4-4-4--44-4-4-4--4--7-7-7--7-7-7--7-7-7--7-7-7--7-7-7-7--7-7-7--7--7-| 
D|-7--7--777-7-7--7-7-5-5-5--55-5-5-5--5--8-8-8--8-8-8--8-8-8--8-8-8--8-8-8-8--8-8-8--8--8-| 
A|-7--7--777-7-7--7-7-5-5-5--55-5-5-5--5--8-8-8--8-8-8--8-8-8--8-8-8--8-8-8-8--8-8-8--8--8-| 
E|-----------------------------------------------------------------------------------------| 

Wah guitar: 
e|------------------------------------| 
B|------------------------------------| 
G|-6~~~~~~~~4~~~~~~~~7~~~~~~~~~~~~~~~~| 
D|------------------------------------| 
A|------------------------------------| 
E|------------------------------------| 


e|------------------------------------------------------------------| 
B|------------------------------------------------------------------| 
G|------------------------------------------------------------------| x2 
D|-12--12-12-12--12-12-12--12-12-12--12-12-12-12--12-12--12--12-12--| 
A|-12--12-12-12--12-12-12--12-12-12--12-12-12-12--12-12--12--12-12--| 
E|-10--10-10-10--10-10-10--10-10-10--10-10-10-10--10-10--10--10-10--| 

Wah guitar: 
e|------------------------------------------------------------------------| 
B|--------------------------10~~~~----------------------------------------| 
G|-7~~~~7~~~~7~~~~7~~~~7~~~~------10----10h12-----------------------------| 
D|-----------------------------------12-------12--12~~~~12~~~~12~~~~12~~~~| 
A|------------------------------------------------------------------------| 
E|------------------------------------------------------------------------| 


e|-----------------------------------------------| 
B|-----------------------------------------------| 
G|-----------------------------------------------| 
D|-8--8-8-8--8-8-8--8-8-8--8-8-8-8--8-8--8--8-8--| 
A|-8--8-8-8--8-8-8--8-8-8--8-8-8-8--8-8--8--8-8--| 
E|-6--6-6-6--6-6-6--6-6-6--6-6-6-6--6-6--6--6-6--| 


e|---------------------------------------------------------------------| 
B|---------------------------------------------------------------------| 
G|---------------------------------------------------------------------| x4 
D|-12--12-12-12--12-12-12--12-12-12--12-12-12-12--12-12--12--12-12b13--| 
A|-12--12-12-12--12-12-12--12-12-12--12-12-12-12--12-12--12--12-12b13--| 
E|-10--10-10-10--10-10-10--10-10-10--10-10-10-10--10-10--10--10-10b11--| 

Fade out. 


************************************ 

| /   slide up 
| \   slide down 
| h   hammer-on 
| p   pull-off 
| ~   vibrato 
| +   harmonic 
| x   Mute note 
| .   staccato 
| b   Bend 
| pb  Pre-bend 
| br  Bend release 
| pbr Pre-bend release 
| brb Bend release bend 

************************************ 

-------------------------------------------------------------------------------------- 
                                       Track 03 
                            Milky Way Spiral Gets a New Arm 
-------------------------------------------------------------------------------------- 

Guitar 1 is in the left speaker. 
Guitar 2 is in the right speaker. 

Intro: 
Guitar 1: 
e|----------------------------------------------------------------------------------| 
B|----------------------------------------------------------------------------------| 
G|-12pb15----r12~~/15-16b18--r16----------------------------------------------------| 
D|---------------------------------15~~~-10h12-12-----------10--10--10-12p10--------| 
A|----------------------------------------------------10h12------------------12-----| 
E|------------------------------------------------10----------------------------10--| 

Guitar 1: 
e|----------------------------------------------------------------------| 
B|----------------------------------------------------------------------| 
G|--------------------------------------------12-b14-12-12b14-12~~~~~~~~| 
D|---------------12-----------------------------------------------------| 
A|---------10/12---------12--12--10-10-12-10----------------------------| 
E|-10--10------------10--10--10--10-10-10-10----------------------------| 


A second guitar comes in: 
Guitar 1: 
e|--------------------------------5---------------------------------| 
B|---------------------------5--5-7--b8------7----------------------| 
G|-7-\5--5-2-4/9~~-2h4/9~~~~-5--5------------9b11--r9--7------------| 
D|------------------------------------------------------------------| 
A|------------------------------------------------------------------| 
E|------------------------------------------------------------------| 

Guitar 2: 
e|------------------------------------------------------------------------------------| 
B|------------------------------------------------7.-7b9------------------------------| 
G|-5/7-----5/7-5.--5--7----4/9--12/14-9-12-----5.--------------7----------------------| 
D|-----5/7---------------------------------5-7----------------7---0-h7p0h7p0h7p0------| 
A|-------------------------------------------------------------------------------0----| 
E|------------------------------------------------------------------------------------| 


The song sort of stops and then starts again: 
Guitar 1 starts playing rhythm: 
e|---------------------------------------| 
B|---------------------------------------| 
G|-9--9--9-9-9--9-9--9-9--9-9-9-9-9-7----| x2 
D|-9--9--9-9-9--9-9--9-9--9-9-9-9-9-7----| 
A|-7--7--7-7-7--7-7--7-7--7-7-7-7-7-5----| 
E|---------------------------------------| 

Guitar 2: 
e|-------------------------------------------------------------------------------------| 
B|-12\---------------------------------------------------------------------------------| 
G|---------------------------------------------------------------12-14b16-16-16-16r14~~| 
D|----14--14--------12-14-14b15r14-12---12-14b15r14-1212---12-14-----------------------| 
A|------------12h14------------------14-----------------14-----------------------------| 
E|-------------------------------------------------------------------------------------| 


Singing starts: 
"We fall slowly" 
Guitar 1 stops playing after this bit: 
e|---------------------| 
B|---------------------| 
G|-9--9--9-9-9--9-9----| 
D|-9--9--9-9-9--9-9----| 
A|-7--7--7-7-7--7-7----| 
E|---------------------| 

Guitar 2: 
e|-------------------------------------------------------------------------------------| 
B|--------12-14-14b16--16r14-----------------------------------/12-/12-/12--12-12-12---| 
G|-14~-14----------------------------------------------12-14\--/13-/13-/13--14-12-13---| 
D|---------------------------------12-14--14--14-14-14---------------------------------| 
A|---------------------------12-14-----------------------------------------------------| 
E|-------------------------------------------------------------------------------------| 


Singing stops for a bit: 
Guitar 2: 
e|-------------------------------| 
B|-15------15----15------12------| 
G|-17b19---17b19-17b19---14b16---| 
D|-------------------------------| 
A|-------------------------------| 
E|-------------------------------| 


Singing starts again: 
"We fall slowly" 
Guitar 2: 
e|---------------------------------------------------------------------------| 
B|-12.-12--12\10-------------------------------------------------------------| 
G|-14.-14--14\12---12/14~~~-------12-14b16-r14-p12--14b16r14p12-----14p12~~~-| 
D|--------------------------12h14-------------------------------14.----------| 
A|---------------------------------------------------------------------------| 
E|---------------------------------------------------------------------------| 


Singing stops again: 
Guitar 2: 
e|-------------------------------------------------------------| 
B|---------------------------------------------12---------12+--| 
G|---------------------------------------------14b16-----------| 
D|-12/14--12---------------------------------------------------| 
A|-----------14-12-h14-----------------------------------------| 
E|---------------------12~~~~-12~~~~\-0------------------------| 


Outro: 
Singing starts again: 
"We fall slowly oh" 
Guitar 2: 
e|-----------------------------------------| 
B|-12-12-----12------10-/12----------------| 
G|-------13-----13---12-/13----------------| 
D|-----------------------------------------| 
A|-----------------------------------------| 
E|-----------------------------------------| 

End with weird animal noise. 


************************************ 

| /   slide up 
| \   slide down 
| h   hammer-on 
| p   pull-off 
| ~   vibrato 
| +   harmonic 
| x   Mute note 
| .   staccato 
| b   Bend 
| pb  Pre-bend 
| br  Bend release 
| pbr Pre-bend release 
| brb Bend release bend 

************************************ 

-------------------------------------------------------------------------------------- 
                                       Track 04 
                                My Lover Mother Nature 
-------------------------------------------------------------------------------------- 

Intro: 
The rhythm of this may be tricky at first. You have to hit the root note then the full 
chord and then hit the top 3 open strings on an upstroke as you change chords. The root 
note sometimes changes on the E major chord, so look out for that. This description sounds 
more complicated than it actually is. Don't over-think it. This is only a guideline. The 
actual rhythm is played loosely and isn't exact each time. 
e|----0-0----0-0----0-0----0-0----0-0----0-0----0-0----0---| 
B|----1-0----0-0----1-0----0-0----1-0----0-0----1-0----0---| 
G|----2-0----1-0----2-0----1-0----2-0----1-0----2-0----1-0-| 
D|----2------2------2------2------2------2------2------2---| 
A|-0--0------2---0--0------2---0--0---2--2---0--0---2--2---| 
E|--------0--0----------0--0-------------------------------| 


Verse: 
"Outer space is the only place to hide now, 
From whoever wants to know where you are, 
Everything is easier than ever" 
e|----0-0----0-0----0-0----0-0----0-0----0-0----0-0----0---| 
B|----1-0----0-0----1-0----0-0----1-0----0-0----1-0----0---| 
G|----2-0----1-0----2-0----1-0----2-0----1-0----2-0----1-0-| x3 
D|----2------2------2------2------2------2------2------2---| 
A|-0--0------2---0--0------2---0--0---2--2---0--0---2--2---| 
E|--------0--0----------0--0-------------------------------| 

The bass plays this after the 1st run through of the chord sequence. It's low in the mix, 
so you have to listen closely to hear it. It's panned to the right speaker. I've tabbed 
it for guitar: 
e|-----------------------------------------| 
B|-----------------------------------------| 
G|-----------------------------------------| 
D|-7--10-9-6--9--7---7.-7.-7.-7-b9r7--7~~~-| 
A|-----------------------------------------| 
E|-----------------------------------------| 

And this afterwards: 
e|---------------------------------------------------------| 
B|---------------------------------------------------------| 
G|---------------------------------------------------------| 
D|-7--10-9-6--9--7--10-9-6--9--7--10-9-6--9--7--10-9-6--9--| 
A|---------------------------------------------------------| 
E|---------------------------------------------------------| 


Pre-Chorus 
"When we fall, baby, we fall so..." 
e|-0-0-0-0-0-0-0-0-0-0-0-0-0-0-0-0-| 
B|-2-2-2-2-2-2-2-2-2-2-2-2-2-2-2-2-| 
G|-2-2-2-2-2-2-2-2-0-0-0-0-0-0-0-0-| 
D|-2-2-2-2-2-2-2-2-2-2-2-2-2-2-2-2-| 
A|-0-0-0-0-0-0-0-0-0-0-0-0-0-0-0-0-| 
E|---------------------------------| 

Bass: 
e|------------------------------| 
B|------------------------------| 
G|------------------------------| 
D|-7--7--7--7-7-----------------| 
A|---------------7-7-7-7--------| 
E|------------------------5--5\-| 


Chorus: 
"...hard, 
Hard, 
Hard, 
Hard, 
Hard, 
Hard, 
Hard, 
Hard" 
e|-0--2-2--0--2-2--0--2-2--0--2-2--0--2-2--0--2-2--0--2-2--0--2-2--| 
B|-0--2-2--0--2-2--0--2-2--0--2-2--0--2-2--0--2-2--0--2-2--0--2-2--| 
G|-1--3-3--1--3-3--1--3-3--1--3-3--1--3-3--1--3-3--1--3-3--1--3-3--| 
D|-2--4-4--2--4-4--2--4-4--2--4-4--2--4-4--2--4-4--2--4-4--2--4-4--| 
A|-2--4-4--2--4-4--2--4-4--2--4-4--2--4-4--2--4-4--2--4-4--2--4-4--| 
E|-0--2-2--0--2-2--0--2-2--0--2-2--0--2-2--0--2-2--0--2-2--0--2-2--| 

Another guitar plays the root notes an octave above, with some slight variations: 
e|-----------------------------------------------------------------------------------| 
B|-----------------------------------------------------------------------------------| 
G|-----------------------------------------------------------------------------------| 
D|--------------11-------------------------------------------------------------------| 
A|-7--9-9--7--9----9--7--9-9--7--9--9-9--7--9--9-9--7--9--9-9--7--9--9-9--7--9--9-9--| 
E|-----------------------------------------------------------------------------------| 


1st guitar Solo: 
Lead guitar: 
e|---------------------------------------------------------------------------| 
B|-2----2----------2-4-5-4h5p4\2-0-2-0--2----2----------2-4-5-4h5p4\2-0-2-0--| 
G|-4b6.-4b6-----------------------------4b6.-4b6-----------------------------| 
D|---------------------------------------------------------------------------| 
A|---------------------------------------------------------------------------| 
E|---------------------------------------------------------------------------| 

Rhythm guitar: 
e|------------| 
B|------------| 
G|------------| x8 
D|------------| 
A|-7--9--9-9--| 
E|------------| 


Lead guitar: 
e|------------------------------------------------------------------------------------------| 
B|-0----0----0----0----0-2-3-2h3p2p0--------0----0----0----0----12-----12-----12-----12-----| 
G|-2b4.-2b4--2b4.-2b4----------------2-4-2--2b4.-2b4--2b4.-2b4--14b16.-14b16.-14b16.-14b16.-| 
D|------------------------------------------------------------------------------------------| 
A|------------------------------------------------------------------------------------------| 
E|------------------------------------------------------------------------------------------| 

Rhythm guitar - there's a key 
change in the solo halfway through, 
so the guitar starts playing this: 
e|----------| 
B|----------| 
G|----------| x8 
D|-9--7--5--| 
A|-9--7--5--| 
E|-7--5--3--| 


Verse: 
"First confide when the primates tried to warn him, 
When Adam rode off to make a fire, 
Mother Nature whispered to the apes now" 
Rhythm guitar: 
e|----0-0----0-0----0-0----0-0----0-0----0-0----0-0----0---| 
B|----1-0----0-0----1-0----0-0----1-0----0-0----1-0----0---| 
G|----2-0----1-0----2-0----1-0----2-0----1-0----2-0----1-0-| x3 
D|----2------2------2------2------2------2------2------2---| 
A|-0--0------2---0--0------2---0--0---2--2---0--0---2--2---| 
E|--------0--0----------0--0-------------------------------| 

Lead guitar: 
e|---------------------------------------------------------------------------------| 
B|---------------------------------------17\15.--13/15.--12h13--10/12-\8-----------| 
G|-------------------------------------------------------------------------10p9----| 
D|----7/9\7------------------------------------------------------------------------| 
A|------------5/7\5/7/9--b10--10r9--7----------------------------------------------| 
E|-5-------------------------------------------------------------------------------| 

e|--------------------------------------------------| 
B|------------------10-b12--r10--10-b12------12.----| 
G|-------10~~.-9~~~---------------------------------| 
D|-10h12--------------------------------------------| 
A|--------------------------------------------------| 
E|--------------------------------------------------| 


Pre-Chorus 
"We'll rebuild this place when they are"..." 
Rhythm guitar: 
e|-0-0-0-0-0-0-0-0-0-0-0-0-0-0-0-0-| 
B|-2-2-2-2-2-2-2-2-2-2-2-2-2-2-2-2-| 
G|-2-2-2-2-2-2-2-2-0-0-0-0-0-0-0-0-| 
D|-2-2-2-2-2-2-2-2-2-2-2-2-2-2-2-2-| 
A|-0-0-0-0-0-0-0-0-0-0-0-0-0-0-0-0-| 
E|---------------------------------| 

Lead guitar: 
e|-9----------| 
B|-----12~~~~~| 
G|------------| 
D|------------| 
A|------------| 
E|------------| 


Chorus: 
"...gone, 
Gone, 
Gone, 
Gone, 
Gone, 
Gone, 
Gone, 
Gone, 
Gone, 
Ohh" 
Guitar 1: 
e|-0--2-2--0--2-2--0--2-2--0--2-2--0--2-2--0--2-2--0--2-2--0--2-2--| 
B|-0--2-2--0--2-2--0--2-2--0--2-2--0--2-2--0--2-2--0--2-2--0--2-2--| 
G|-1--3-3--1--3-3--1--3-3--1--3-3--1--3-3--1--3-3--1--3-3--1--3-3--| x2 
D|-2--4-4--2--4-4--2--4-4--2--4-4--2--4-4--2--4-4--2--4-4--2--4-4--| 
A|-2--4-4--2--4-4--2--4-4--2--4-4--2--4-4--2--4-4--2--4-4--2--4-4--| 
E|-0--2-2--0--2-2--0--2-2--0--2-2--0--2-2--0--2-2--0--2-2--0--2-2--| 

Guitar 2: 
e|-----------------------------------------------------------------------------------------| 
B|-----------------------------------------------------------------------------------------| 
G|-----------------------------------------------------------------------------------------| x2 
D|-----------------------------------------------------------------------------------------| 
A|-7--9--9-9--7--9--9-9--7--9--9-9--7--9--9-9--7--9--9-9--7--9--9-9--7--9--9-9--7--9--9-9--| 
E|-----------------------------------------------------------------------------------------| 


Verse variation/mandolin section: 
Rhythm guitar: 
e|----0-0----0-0----0-0----0-0----0-0----0-0----0-0----0---| 
B|----1-0----0-0----1-0----0-0----1-0----0-0----1-0----0---| 
G|----2-0----1-0----2-0----1-0----2-0----1-0----2-0----1-0-| x3 
D|----2------2------2------2------2------2------2------2---| 
A|-0--0------2---0--0------2---0--0---2--2---0--0---2--2---| 
E|--------0--0----------0--0-------------------------------| 

A 2nd guitar plays these root notes 
for the first chord sequence: 
e|----------------------------| 
B|----------------------------| 
G|----------------------------| 
D|----------------------------| 
A|-0-----0--2--0-----0---0h2--| 
E|----0-----------0----0------| 

Mandolin: 
e|-5-5-5.--7-7-7.--5-5-5.--7-7-7.--5-5-5.--7-7-7.--5-5-5.--7-7-7.--| 
B|-5-5-5.--9-9-9.--5-5-5.--9-9-9.--5-5-5.--9-9-9.--5-5-5.--9-9-9.--| 
G|-5-5-5.--9-9-9.--5-5-5.--9-9-9.--5-5-5.--9-9-9.--5-5-5.--9-9-9.--| 
D|-----------------------------------------------------------------| 
A|-----------------------------------------------------------------| 
E|-----------------------------------------------------------------| 

e|-555-5-5.--777-7-7.--555-5-5.--777-7-7.--555-5-5.--777-7-7.--555-5-5.--777-7-7.--| 
B|-555-5-5.--999-9-9.--555-5-5.--999-9-9.--555-5-5.--999-9-9.--555-5-5.--999-9-9.--| 
G|-555-5-5.--999-9-9.--555-5-5.--999-9-9.--555-5-5.--999-9-9.--555-5-5.--999-9-9.--| x2 
D|---------------------------------------------------------------------------------| 
A|---------------------------------------------------------------------------------| 
E|---------------------------------------------------------------------------------| 


Pre-Solo: 
Rhythm guitar: 
e|-0-0-0-0-0-0-0-0-0-0-0-0-0-0-0-0-| 
B|-2-2-2-2-2-2-2-2-2-2-2-2-2-2-2-2-| 
G|-2-2-2-2-2-2-2-2-0-0-0-0-0-0-0-0-| 
D|-2-2-2-2-2-2-2-2-2-2-2-2-2-2-2-2-| 
A|-0-0-0-0-0-0-0-0-0-0-0-0-0-0-0-0-| 
E|---------------------------------| 

Mandolin: 
e|----5.--5-5-5-5--0-0-0-0-0-0-0-0-| 
B|----5.--5-5-5-5--2-2-2-2-2-2-2-2-| 
G|-6--6.--6-6-6-6--0-0-0-0-0-0-0-0-| 
D|---------------------------------| 
A|---------------------------------| 
E|---------------------------------| 

Lead guitar: 
e|-9------------| 
B|------12--10--| 
G|--------------| 
D|--------------| 
A|--------------| 
E|--------------| 


2nd Solo: 
The 1st solo plays very quietly in the background, but it's more of a production 
trick, than an essential part of the song, so I won't tab it here again. 
Lead guitar: 
e|-------------------------------------------------------| 
B|-9b10-------7-9-7-9b10-9-7---7b8-7~~~--------2---------| 
G|---------------------------9----------6-6/8--3-3/6--4--| 
D|-------------------------------------------------------| 
A|-------------------------------------------------------| 
E|-------------------------------------------------------| 

Rhythm guitar: 
e|------------| 
B|------------| 
G|------------| x8 
D|------------| 
A|-7--9--9-9--| 
E|------------| 


Lead guitar: 
e|-----------------------------------------------------------------| 
B|------------------------------------14-b15r14--------------------| 
G|-3-b4-----6--8--b9---6-7-9-7-6-6~~6-----------13--11---13b14-----| 
D|-----------------------------------------------------------------| 
A|-----------------------------------------------------------------| 
E|-----------------------------------------------------------------| 

Rhythm guitar - key change: 
e|----------| 
B|----------| 
G|----------| x8 
D|-9--7--5--| 
A|-9--7--5--| 
E|-7--5--3--| 


Lead guitar: 
e|----------------------------------------------------------------------------| 
B|----------------------------------------------------------------------------| 
G|-13pb14--r13p11\9-9/11-9/11~~~~~~-13-b14---14r13-11~~-----------------------| 
D|-----------------------------------------------------13\11---8\7-/8--/9\8---| 
A|----------------------------------------------------------------------------| 
E|----------------------------------------------------------------------------| 

This bit is just rapid hammer-ons and pull-offs, but done quietly for the last 8 bars: 
e|-------------------------------------------------------------------------| 
B|-------------------------------------------------------------------------| 
G|-------------------------------------------------------------------------| 
D|-8----h9p8h9p8h9p8h9p8h9p8h9p8h9p8h9p8h9p8h9p8h9p8h9p8h9p8h9p8h9p8-\\\\--| 
A|-------------------------------------------------------------------------| 
E|-------------------------------------------------------------------------| 

Rhythm guitar - key change again: 
e|------------| 
B|------------| 
G|------------| x16 
D|------11----| 
A|-7--9----9--| 
E|------------| 


Bridge: 
"I was just another one, 
Waiting for the bees to come, 
I was Mother Nature's son" 
The bass plays this underneath the lyrics: 
e|-----------| 
B|-----------| 
G|-----------| x20 
D|-----------| 
A|------4----| 
E|-0--2---2--| 


Guitar plays a chord: 
e|----2----------------------------| 
B|---2-----------------------------| 
G|--3------------------------------| 
D|-4-------------------------------| 
A|---------------------------------| 
E|------------2--------------------| 

Bass: 
e|-----------| 
B|-----------| 
G|-----------| x4 
D|-----------| 
A|------4----| 
E|-0--2---2--| 


"But I was just another one" 
Bass: 
e|-----------| 
B|-----------| 
G|-----------| x4 
D|-----------| 
A|------4----| 
E|-0--2---2--| 


Outro Solo: 
"Just another one" 
Lead guitar: 
e|----------------------------------9b11--r9-------------------------| 
B|-9-9-9-9-9--9-9-9-9-9--9-9-9-9-9------------11-11-11-11-11--11-11--| 
G|-------------------------------------------------------------------| 
D|-------------------------------------------------------------------| 
A|-------------------------------------------------------------------| 
E|-------------------------------------------------------------------| 

e|-9b11.-----------------------------------------------------| 
B|-------11-11-11-11-11b13r11-11b13-11b13-11b13-11b13-11\\\--| 
G|-----------------------------------------------------------| 
D|-----------------------------------------------------------| 
A|-----------------------------------------------------------| 
E|-----------------------------------------------------------| 

e|-----------------------------------------------------------------| 
B|-11p9-11p9-11-9--11p9-11p9-11-9--11p9-11p9-11-9--11p9-11p9-11-9--| 
G|-----------------------------------------------------------------| 
D|-----------------------------------------------------------------| 
A|-----------------------------------------------------------------| 
E|-----------------------------------------------------------------| 

e|---------------------------------------------------------------------------| 
B|-11p9-11p9-11-9--11p9-11p9-11-9--11p9-11p9-11-9--11p9-11p9-11-9--11---b13--| 
G|---------------------------------------------------------------------------| 
D|---------------------------------------------------------------------------| 
A|---------------------------------------------------------------------------| 
E|---------------------------------------------------------------------------| 


End with: 
"Oh" 
Rhythm guitar: 
e|-2--2--| 
B|-2--2--| 
G|-3--3--| 
D|-4--4--| 
A|-4--4--| 
E|-2--2--| 



************************************ 

| /   slide up 
| \   slide down 
| h   hammer-on 
| p   pull-off 
| ~   vibrato 
| +   harmonic 
| x   Mute note 
| .   staccato 
| b   Bend 
| pb  Pre-bend 
| br  Bend release 
| pbr Pre-bend release 
| brb Bend release bend 

************************************ 

-------------------------------------------------------------------------------------- 
                                       Track 05 
                                    The Serpentine 
-------------------------------------------------------------------------------------- 

Intro: 
e|------------------X-X-----------------| 
B|------------------X-X-----------------| 
G|------------------X-X--7-5------------| 
D|------------------X-X------7-5~-3-----| 
A|------------------X-X-------------5-3-| 
E|-11~~~~~~~~\\\----X-X-----------------| 


Verse: 
"Oh, darling, I think you'll like the day, 
Cross your heart and hope to fade away, 
If I was the Earth, you would be the sun, 
No, you'd be the entire Milky Way" 
e|--------------------------------------------------| 
B|--------------------------------------------------| 
G|------------------------------5~------------------| x4 
D|------------------------3-5/7----7p5-3-5----------| 
A|-5.--5.--5.--X--X-X-3h5-------------------3--3-5--| 
E|--------------------------------------------------| 


Pre-Chorus 
"Deep into the monster's eyes, 
Dancin' 'round your Daddy's thin line, 
We could go frolic in the meadows, 
We could swimming in the Serpentine" 
Guitar with tremolo effect: 
e|--------------------------| 
B|---------------------6----| 
G|-2----4----5----7----5----| 
D|-2----4----5----7----4----| 
A|-0----2----3----5----5----| 
E|--------------------------| 


Chorus: 
e|---------------------------| 
B|---------------------------| 
G|-----7-5-------------------| x3    \ 
D|---------7-6-5-3-----------|        \ 
A|-5---------------5.--5-3---|         \ 
E|---------------------------|          | 
                                        | x2 
e|-------------------------------|      | 
B|-------------------------6b8-3~|     / 
G|-----------------------5-------|    / 
D|-----3--0-3-5--0-5-6-7---------|   / 
A|-3-5---------------------------| 
E|-------------------------------| 


Verse: 
"Oh, darling, you told me you had no, 
This side of you, you never show, 
I wouldn't have wasted all this time, 
And I'd have you all to my own" 
e|--------------------------------------------------| 
B|--------------------------------------------------| 
G|------------------------------5~------------------| x4 
D|------------------------3-5/7----7p5-3-5----------| 
A|-5.--5.--5.--X--X-X-3h5-------------------3--3-5--| 
E|--------------------------------------------------| 


Pre-Chorus 
"Deep into the monster's eyes, 
Dancin' 'round your Daddy's thin line, 
We could go frolic in the meadows, 
We could swimming in the Serpentine" 
Tremolo guitar: 
e|--------------------------| 
B|---------------------6----| 
G|-2----4----5----7----5----| 
D|-2----4----5----7----4----| 
A|-0----2----3----5----5----| 
E|--------------------------| 


Chorus: 
e|---------------------------| 
B|---------------------------| 
G|-----7-5-------------------| x3    \ 
D|---------7-6-5-3-----------|        \ 
A|-5---------------5.--5-3---|         \ 
E|---------------------------|          | 
                                        | x2 
e|-------------------------------|      | 
B|-------------------------6b8-3~|     / 
G|-----------------------5-------|    / 
D|-----3--0-3-5--0-5-6-7---------|   / 
A|-3-5---------------------------| 
E|-------------------------------| 


Bridge: 
Short Instrumental bit: 
Tremolo guitar: 
e|-----------------------| 
B|----6--5b6r5--5b6r5\3--| 
G|-----------------------| 
D|-----------------------| 
A|-----------------------| 
E|-3---------------------| 


Lyrics start: 
"Oh, this feeling I've felt before, 
One of the visions you cannot ignore, 
I don't know what this feeling is for, 
I feel love from you" 
Tremolo guitar: 
e|-3----4----5----7-----8-----8----10--------| 
B|-3----4----5----7-----8-----8----10--------| 
G|-3----5----5----7-----9-----9----11--------| 
D|-5----6----7----9----10----10----12--------| 
A|-5----6----7----9----10----10----12--------| 
E|-3----4----5----7-----8-----8----10--------| 

Lead guitar: 
e|-----------------------------------------------| 
B|-----------------------------------------------| 
G|-----------------------------------------------| 
D|---------------------------10------------------| 
A|-------------------------------10--------------| 
E|-----------7---5-7-9----8---------8--10--------| 


Instrumental section: 
e|---------| 
B|---------| 
G|---------| x8 
D|-----3-5-| 
A|-3-5-----| 
E|---------| 


e|-------------------------------| 
B|-------------------------------| 
G|---------3---3-5b7-3---5b7-3---| x2 
D|-----3-5---5---------5-------5-| 
A|-3-5---------------------------| 
E|-------------------------------| 


2nd guitar comes in: 
Guitar 1: 
e|---------| 
B|---------| 
G|---------| x8 
D|-----3-5-| 
A|-3-5-----| 
E|---------| 

Guitar 2: 
e|-----3-5-| 
B|-3-5-----| 
G|---------| x8 
D|---------| 
A|---------| 
E|---------| 


e|---------| 
B|---------| 
G|---------| x4 
D|-----3-5-| 
A|-3-5-----| 
E|---------| 


e|-----------------------------------| 
B|-----------------------------------| 
G|-3---3-5b7-3---5b7-3---5b7-3-------| 
D|---5---------5-------5-------5-----| 
A|--------------------------------5.-| 
E|-----------------------------------| 


Verse - for this verse you play each riff after the line is sung: 
"She said "it's kind of like a dream"" 

e|--------------------------------------| 
B|--------------------------------------| 
G|--------------------------------------| 
D|-----3-5-----3-5-----3-5-----3h5p3----| 
A|-3-5-----3-5-----3-5-----3-5-------5.-| 
E|--------------------------------------| 


And I said "well, honey, I have to agree"" 

e|--------------------------------------| 
B|--------------------------------------| 
G|--------------------------------------| 
D|-----3-5-----3-5-----3-5-----3h5p3----| 
A|-3-5-----3-5-----3-5-----3-5-------5.-| 
E|--------------------------------------| 


These parts are played in the background during the singing: 
She said "my woes flow like a river"" 
Guitar 1: 
e|---------------------------| 
B|---------------------------| 
G|---------------------------| 
D|------------------12\-12\--| 
A|-5--5-5-5-5--5-5-----------| 
E|---------------------------| 

Guitar 2: 
e|----------------------------------| 
B|----------------------------------| 
G|------------------5h7p5h7p5h7p5\--| 
D|----------------------------------| 
A|----------------------------------| 
E|----------------------------------| 


e|--------------------------------------| 
B|--------------------------------------| 
G|--------------------------------------| 
D|-----3-5-----3-5-----3-5-----3h5p3----| 
A|-3-5-----3-5-----3-5-----3-5-------5.-| 
E|--------------------------------------| 


And I said "they flow more like a sea"" 
e|----------------------------| 
B|----------------------------| 
G|---------------X-X-X-X-X-5--| 
D|---------------X-X-X-X-X-5--| 
A|---------------X-X-X-X-X-3--| 
E|----------------------------| 


e|--------------------------------| 
B|--------------------------------| 
G|--------------------------------| 
D|-----3-5-----3-5-----3-5-----3--| 
A|-3-5-----3-5-----3-5-----3-5----| 
E|--------------------------------| 


2nd Instrumental section: 
e|-------------| 
B|-------------| 
G|-------------| x4 
D|-------------| 
A|-------10-12-| 
E|-10-12-------| 


e|-------------| 
B|-------------| 
G|-------12-14-| x4 
D|-12-14-------| 
A|-------------| 
E|-------------| 


e|-------------| 
B|-------------| 
G|-------------| x4 
D|-------10-12-| 
A|-10-12-------| 
E|-------------| 


e|----------------------------------------------| 
B|----------------------------------------------| 
G|-10----10-12b14-10----12b14-10----12b14-10----| 
D|----12-------------12----------12----------12-| 
A|----------------------------------------------| 
E|----------------------------------------------| 


One guitar plays this on its own: 
e|---------------------------| 
B|---------------------------| 
G|-----7-5-------------------| 
D|---------7-6-5-3-----------| 
A|-5---------------5.--5-3---| 
E|---------------------------| 


Chorus: 
e|---------------------------| 
B|---------------------------| 
G|-----7-5-------------------| x3 
D|---------7-6-5-3-----------| 
A|-5---------------5.--5-3---| 
E|---------------------------| 

e|-------------------------------| 
B|-------------------------6b8-3~| 
G|-----------------------5-------| 
D|-----3--0-3-5--0-5-6-7---------| 
A|-3-5---------------------------| 
E|-------------------------------| 


Slight variation, without the 1st note: 
e|-----------------------------| 
B|-----------------------6b8-3~| 
G|---------------------5-------| x3 
D|---3--0-3-5--0-5-6-7---------| 
A|-5---------------------------| 
E|-----------------------------| 


Wah guitar comes in: 
e|-----------------------------| 
B|-----------------------6b8-3~| 
G|---------------------5-------| x4 
D|---3--0-3-5--0-5-6-7---------| 
A|-5---------------------------| 
E|-----------------------------| 


Wah riff - Chorus variation: 
e|------------------------| 
B|---6~---6~---6~---------| 
G|-7----7----7----7-5-7-5-| x3 
D|------------------------| 
A|------------------------| 
E|------------------------| 


e|-----------------------------| 
B|---6-------------------6b8-3~| 
G|-7-------------------5-------| 
D|------0-3-5--0-5-6-7---------| 
A|-----------------------------| 
E|-----------------------------| 


End with: 
e|-----------------------------------| 
B|-----------------------------------| 
G|----------5h7p5h7p5h7p5h7p5h7p5h7\-| 
D|-----------------------------------| 
A|-5---------------------------------| 
E|-----------------------------------| 



************************************ 

| /   slide up 
| \   slide down 
| h   hammer-on 
| p   pull-off 
| ~   vibrato 
| +   harmonic 
| x   Mute note 
| .   staccato 
| b   Bend 
| pb  Pre-bend 
| br  Bend release 
| pbr Pre-bend release 
| brb Bend release bend 

************************************ 

-------------------------------------------------------------------------------------- 
                                       Track 06 
                                       The Sun 
-------------------------------------------------------------------------------------- 

Fuzz Intro: 
e|-/4-4-4-/4-4-4-2-4-7-4-| 
B|-/4-4-4-/4-4-4-2-4-7-4-| 
G|-----------------------| 
D|-----------------------| 
A|-----------------------| 
E|-----------------------| 


Main riff: 
e|----------------| 
B|----------------| 
G|-6------9---6---| x4 
D|-6------9---6---| 
A|-4------7---4---| 
E|----------------| 


Verse: 
"The sun rose on the wrong side of the Earth this morning, 
Nobody noticed but you, 
So you winked at the sun and the sun winked back" 
e|----------------| 
B|----------------| 
G|-6------9---6---| x9 
D|-6------9---6---| 
A|-4------7---4---| 
E|----------------| 

"And you kept it to yourself" 
e|----------------| 
B|----------------| 
G|-6------9-------| 
D|-6------9---9---| 
A|-4------7---9---| 
E|------------7---| 


Pre-Solo: 
Guitar 1: 
e|-----------------------------------------------------------------------------| 
B|-----------------------------------------------------------------------------| 
G|-------------------------------------------------------------------------5.--| 
D|-7--7--7-7--7--7-7--7--7--7-7--7--7-7--7--7--7-7--7--7-7--7--7--7-7--7.--5.--| 
A|-7--7--7-7--7--7-7--7--7--7-7--7--7-7--7--7--7-7--7--7-7--7--7--7-7--7.--3.--| 
E|-5--5--5-5--5--5-5--5--5--5-5--5--5-5--5--5--5-5--5--5-5--5--5--5-5--5.------| 

Guitar 2: 
e|-------------------15-b17---17--15b17---15b17--17.--| 
B|----------------------------------------------------| 
G|-12-b14---12-b14------------------------------------| 
D|----------------------------------------------------| 
A|----------------------------------------------------| 
E|----------------------------------------------------| 


Solo: 
Guitar 1: 
e|--------------------| 
B|--------------------| 
G|-7--7--7-7--7--7-7--| x4 
D|-7--7--7-7--7--7-7--| 
A|-5--5--5-5--5--5-5--| 
E|--------------------| 

Guitar 2: 
e|-20-b22--22--20-b22--22-22-22-22--20b22\--10h13p10--13p10-10h13p10h13p10-| 
B|-------------------------------------------------------------------------| 
G|-------------------------------------------------------------------------| 
D|-------------------------------------------------------------------------| 
A|-------------------------------------------------------------------------| 
E|-------------------------------------------------------------------------| 

e|--------------------------------------------------------| 
B|-10-----------------------------------------------------| 
G|-------10-12-12b14-10h12p10h12p10h12p10h12p10--14h17p14-| 
D|----12--------------------------------------------------| 
A|--------------------------------------------------------| 
E|--------------------------------------------------------| 


Verse: 
"The stars are gonna give up hope this evenin', 
Nobody knows this but you, 
When the small ones have imploded and red giants have supernovaed" 
e|----------------| 
B|----------------| 
G|-6------9---6---| x9 
D|-6------9---6---| 
A|-4------7---4---| 
E|----------------| 

Guitar 2: 
e|-------------------------------------12b14-12.-9---------------------------| 
B|-9-------------------------------------------------------------------------| 
G|--------------------9b9.5-----------------------------11pb13-r11\----------| 
D|--------------9-11--------11-9h11------------------------------------------| 
A|---------9h11--------------------------------------------------------------| 
E|---------------------------------------------------------------------------| 

Wait for two repeats of the main riff after the playing the above lead before playing this one: 
e|----------------------------------------------------------9--12b14-12-9---| 
B|--------------------------------------------------------------------------| 
G|------------9b9.5--------------9------------------------------------------| 
D|------9-11--------11-9h11--------11-9-11----------------------------------| 
A|-9h11------------------------------------9-11-----------------------------| 
E|----------------------------------------------12--------------------------| 

e|-----------------------------------------------------| 
B|-----------------------------------------------------| 
G|-11b13---10---10---10-10-10----10/13---10~~~~~~~~~~~~| 
D|-----------------------------------------------------| 
A|-----------------------------------------------------| 
E|-----------------------------------------------------| 


"Then sorry the earth will be" 
e|----------------| 
B|----------------| 
G|-6------9-------| 
D|-6------9---9---| 
A|-4------7---9---| 
E|------------7---| 


Pre-Solo: 
Guitar 1: 
e|-----------------------------------------------------------------------------| 
B|-----------------------------------------------------------------------------| 
G|-------------------------------------------------------------------------5.--| 
D|-7--7--7-7--7--7-7--7--7--7-7--7--7-7--7--7--7-7--7--7-7--7--7--7-7--7.--5.--| 
A|-7--7--7-7--7--7-7--7--7--7-7--7--7-7--7--7--7-7--7--7-7--7--7--7-7--7.--3.--| 
E|-5--5--5-5--5--5-5--5--5--5-5--5--5-5--5--5--5-5--5--5-5--5--5--5-5--5.------| 

Guitar 2: 
e|------------------------------------------------15.--| 
B|-----------------------------------------------------| 
G|-12-b14---12-b14---12-b14---12b14---12b14r12\--------| 
D|-----------------------------------------------------| 
A|-----------------------------------------------------| 
E|-----------------------------------------------------| 


Solo: 
Guitar 1: 
e|--------------------| 
B|--------------------| 
G|-7--7--7-7--7--7-7--| x4 
D|-7--7--7-7--7--7-7--| 
A|-5--5--5-5--5--5-5--| 
E|--------------------| 

Guitar 2: 
e|-20-b22---20-b22---22\---20b22-----------------------------13------------------------| 
B|--------------------------------15-18-15--18b20-18b20-18------15--13-----------------| 
G|---------------------------------------------------------------------14-12--10h12-10-| 
D|-------------------------------------------------------------------------------------| 
A|-------------------------------------------------------------------------------------| 
E|-------------------------------------------------------------------------------------| 


Dual guitar solo - guitar 1 stops playing rhythm at this stage: 
Guitar 2: 
e|-------------------------------------------------------------------------------------| 
B|-18-b20-20---15-h18p15p13-13b15-13b15--13-10-----------------------------------------| 
G|---------------------------------------------12-10-----10~---10-12b14-12b14-12-10----| 
D|---------------------------------------------------12-----12----------------------12-| 
A|-------------------------------------------------------------------------------------| 
E|-------------------------------------------------------------------------------------| 

Guitar 1: 
e|-----------------------------------------------------------------------------| 
B|-18-b20-20-20-20r18-15----15-------------------------------------------------| 
G|-----------------------17----17-14-17b19-19-17b19-19-19r17-14----------------| 
D|--------------------------------------------------------------17-15----15-17-| 
A|--------------------------------------------------------------------17-------| 
E|-----------------------------------------------------------------------------| 


Guitar 2: 
e|----------------------------------------------------------------------------------| 
B|----------------------------------------------------------------------------------| 
G|-----------5h7------------5h7---10b12r10--10h12p10----10-12-10b12----10h12p10-----| 
D|-------5h7------------5h7--------------------------12-------------12----------12--| 
A|-5.-5-----------5.-5--------------------------------------------------------------| 
E|----------------------------------------------------------------------------------| 

Guitar 1: 
e|--------------------------------------------------------------------------------------------| 
B|--------------------------------------------------------------------------------------------| 
G|--------------------------------------------------------------------------------------------| 
D|-17-15-----17-15-----17-15-----17-15-----1515151515151515-15-17p15-----------------15151515-| 
A|-------17--------17--------17--------17----------------------------17-15----15-h17----------| 
E|-------------------------------------------------------------------------17-----------------| 


Guitar 1 and 2 with wah: 
e|------------------------------------------| 
B|------------------------------------------| 
G|-7--7--7-7--7--7-7--7--7--7-7--7--7-7--7--| 
D|-7--7--7-7--7--7-7--7--7--7-7--7--7-7--7--| 
A|-5--5--5-5--5--5-5--5--5--5-5--5--5-5--5--| 
E|------------------------------------------| 


Guitar 2: 
e|----------------------13------------------------------| 
B|-------------------------15-15--15-13-----------------| 
G|-10b12-7-7-7h10p7---------------------14-12-10h12/14--| 
D|------------------10----------------------------------| 
A|------------------------------------------------------| 
E|------------------------------------------------------| 

Guitar 1: 
e|-15--13--------------------------------------------------| 
B|--------15-13----------12b13----13-12121212121212121212--| 
G|--------------14-12-14-------14--------------------------| 
D|---------------------------------------------------------| 
A|---------------------------------------------------------| 
E|---------------------------------------------------------| 


Outro: 
"The sun rose on the wrong side of the earth" 
Guitar 2: 
e|-------------------------| 
B|-------------------------| 
G|-6------9---6---6--------| 
D|-6------9---6---6--------| 
A|-4------7---4---4--------| 
E|-------------------------| 

Guitar 1: 
e|---------------------------------------------------------------------------| 
B|---------------------------------------------------------------------------| 
G|-11-\10---13-b15r13--10--\8-10~~~~~~~~~~~~~~~~~~~~~~~~~~~~~~~~~~~~~~~~~~~\-| 
D|---------------------------------------------------------------------------| 
A|---------------------------------------------------------------------------| 
E|---------------------------------------------------------------------------| 

Sustain the last note and mess with the wah pedal for the ending. 


************************************ 

| /   slide up 
| \   slide down 
| h   hammer-on 
| p   pull-off 
| ~   vibrato 
| +   harmonic 
| x   Mute note 
| .   staccato 
| b   Bend 
| pb  Pre-bend 
| br  Bend release 
| pbr Pre-bend release 
| brb Bend release bend 

************************************ 

-------------------------------------------------------------------------------------- 
                                       Track 07 
                            When the Feeling's in the Core 
-------------------------------------------------------------------------------------- 

Lead guitar Intro: 
Guitar 2: 
e|---/10--10------10-10---------------------------| 
B|----------------11-11----1-3-3b5-3-1h3p1--------| 
G|------------10--10-10--------------------3-3----| 
D|-8-----------------------------------------3----| 
A|-------------------------------------------3----| 
E|------------------------------------------------| 

e|-1-3-3b5-3-----------1-3-/5-/6-/8---8~---6---------------| 
B|-----------1h3p1h3-3----------------8~-----8-/15--15-----| 
G|------------------------------------8~-------------------| 
D|---------------------------------------------------------| 
A|---------------------------------------------------------| 
E|---------------------------------------------------------| 


Guitar 1: 
Bass guitar starts playing this: 
e|---------------------| 
B|---------------------| 
G|---------------------| x4 
D|---------------------| 
A|---------------------| 
E|-1-1--3-3--1-1--3-3--| 

e|-10-------------------------------------------------------------------| 
B|-13b15----15--15r13---------10---------8b10r8--7---\------------------| 
G|---------------------10-----10-\7--7-----------7---\------------------| 
D|--------------------------------------------------------3--------3/15-| 
A|--------------------------------------------------------3-------------| 
E|----------------------------------------------------------------------| 


Pre-verse riff: 
Guitar 2: 
Then another guitar starts playing this riff: 
e|------------------------------------------| 
B|------------------------------------------| 
G|-/10h12-10--9h10-9--7h9-7--5h7-5--4h5-4~--| x2 
D|------------------------------------------| 
A|------------------------------------------| 
E|------------------------------------------| 

Guitar 1: 
This keeps playing in the background: 
e|---------------------| 
B|---------------------| 
G|---------------------| x2 
D|---------------------| 
A|---------------------| 
E|-1-1--3-3--1-1--3-3--| 


Guitar 1: 
Another guitar starts playing this rhythm: 
e|---------------------------------| 
B|-1--1-1--3--3-3--1--1-1--3--3-3--| 
G|-2--2-2--4--4-4--2--2-2--4--4-4--| x6 
D|-3--3-3--5--5-5--3--3-3--5--5-5--| 
A|-3--3-3--5--5-5--3--3-3--5--5-5--| 
E|---------------------------------| 

Guitar 2: 
e|------------------------------------------| 
B|------------------------------------------| 
G|-/10h12-10--9h10-9--7h9-7--5h7-5--4h5-4~--| x6 
D|------------------------------------------| 
A|------------------------------------------| 
E|------------------------------------------| 


Pre-verse Solo: 
Guitar 1: 
e|------------------| 
B|------------------| 
G|----7--7-7--5--5--| x8 
D|----7--7-7--5--5--| 
A|-5--5--5-5--3--3--| 
E|------------------| 

Guitar 2 plays this lead: 
e|-------------------5-6-6/8--6-5-6p5----5---------5-6--8-\5--5/6--------------| 
B|----------------8-------------------8--------5-8-----------------8-5h6-------| 
G|-2---4b5-----------------------------------7---------------------------7-----| 
D|-----------------------------------------------------------------------------| 
A|-----------------------------------------------------------------------------| 
E|-----------------------------------------------------------------------------| 


verse 1: 
"Send me back, the feeling's reached the core, 
Ocean waves sound more like whispers from the shore" 
Guitar 1: 
e|------------------| 
B|------------------| 
G|----7--7-7--5--5--| x8 
D|----7--7-7--5--5--| 
A|-5--5--5-5--3--3--| 
E|------------------| 


Chorus: 
"See my eyes look back again once before, 
See my eyes look back again once before" 
Guitar 1: 
e|---------------------| 
B|---------------------| 
G|---------------------| x4 
D|---------------------| 
A|---------------------| 
E|-1-1--3-3--1-1--3-3--| 

Guitar 2 - this part is very hard to hear, but I think it plays these arpeggios: 
e|-------1-3-------1-------------3-------1-3-------1-------------3-| 
B|-----1-----3-------1---------3-------1-----3-------1---------3---| 
G|---2---------4-------2-----4-------2---------4-------2-----4-----| x2 
D|-3-------------5-------3-5-------3-------------5-------3-5-------| 
A|-----------------------------------------------------------------| 
E|-----------------------------------------------------------------| 


verse 2: 
"There is no, there's nothing that I need to say" 
Guitar 1: 
e|------------------| 
B|------------------| 
G|----7--7-7--5--5--| x4 
D|----7--7-7--5--5--| 
A|-5--5--5-5--3--3--| 
E|------------------| 

Guitar 2 plays this short lead in the background: 
e|-----------------| 
B|-----------------| 
G|-7b9--7b9r7--7---| 
D|-----------------| 
A|-----------------| 
E|-----------------| 


First guitar Solo: 
Guitar 1 keeps playing this rhythm behind the Solo: 
e|------------------| 
B|------------------| 
G|----7--7-7--5--5--| x16 
D|----7--7-7--5--5--| 
A|-5--5--5-5--3--3--| 
E|------------------| 

Guitar 2: 
e|---------------------------------------------------------| 
B|---------------------------------------------------------| 
G|-----2-----2--0h2h4-0h2h4b5-----------2--2h4-2h4-2-------| 
D|-4h5---4h5--------------------4h5-4h5--------------4-----| 
A|---------------------------------------------------------| 
E|---------------------------------------------------------| 

e|-------------------------------------------------------------------| 
B|-------------------------------------------------------------------| 
G|-------------------------------------------------------------------| 
D|-------2--2h4-2h4--------2--2h4-2h4--------2--2h4-2h4--------2-----| 
A|-2-4-5-------------2-4-5-------------2-4-5-------------2-4-5-------| 
E|-------------------------------------------------------------------| 

e|---------------------10b12r10--8b8.5--7b7.5-----| 
B|-7b8r7--10b12-12r10-----------------------------| 
G|------------------------------------------------| 
D|------------------------------------------------| 
A|------------------------------------------------| 
E|------------------------------------------------| 

e|-------------------------------------------------------------------------------------| 
B|-5h7p5\3---------5h7p5\3---------5h7p5\3---------5h7p5\3---------5h7p5\3-------------| 
G|---------4h5p4\2---------4h5p4\2---------4h5p4\2---------4h5p4\2---------4h5p4\2-----| 
D|-------------------------------------------------------------------------------------| 
A|-------------------------------------------------------------------------------------| 
E|-------------------------------------------------------------------------------------| 

Guitar 1 stops playing rhythm: 
Guitar 2: 
e|------------------------------------------------------------| 
B|------------------------------------------------------------| 
G|-6b7--6b7-6b7-6b7-6b7---6b7-6b7-6b7-6b7-6b7-----r6\2--2-----| 
D|------------------------------------------------------------| 
A|------------------------------------------------------------| 
E|------------------------------------------------------------| 

e|--------------------------------------5-6-8----5-6-8------5/10---| 
B|-----------------------10-\9-\8---7-8--------8--------7-8--------| 
G|-0-2/4/6-b7-r6---2-----------------------------------------------| 
D|-----------------------------------------------------------------| 
A|-----------------------------------------------------------------| 
E|-----------------------------------------------------------------| 

e|-10--8-7--7--10--8-7--7\5--5--10--8-7--7--10--8-7--7\5--5--| 
B|-12-10-8--7--12-10-8--7\5--5--12-10-8--7--12-10-8--7\5--5--| 
G|-----------------------------------------------------------| 
D|-----------------------------------------------------------| 
A|-----------------------------------------------------------| 
E|-----------------------------------------------------------| 

e|-10--8-7--7--10--8-7--7\5--5--10--8-7--7----------| 
B|-12-10-8--7--12-10-8--7\5--5--12-10-8--7----------| 
G|--------------------------------------------------| 
D|--------------------------------------------------| 
A|--------------------------------------------------| 
E|--------------------------------------------------| 

e|-11-10--------------------------------------9--10--12--| 
B|-------13-11-10----10------10-----10-----10------------| 
G|----------------12------12-----12-----12---------------| 
D|-------------------------------------------------------| 
A|-------------------------------------------------------| 
E|-------------------------------------------------------| 

e|-13\9-9--13\9-9--13\9-9--13\9-9--13\9-9--13\9-9--13\9-9--13\9-9-8--| 
B|-------------------------------------------------------------------| 
G|-------------------------------------------------------------------| 
D|-------------------------------------------------------------------| 
A|-------------------------------------------------------------------| 
E|-------------------------------------------------------------------| 

e|-11\8-8--11\8-8--11\8-8--11\7-7--8\5-5--8\5-5-3-5-------0--| 
B|--------------------------------------------------3-5---3--| 
G|------------------------------------------------------5----| 
D|-----------------------------------------------------------| 
A|-----------------------------------------------------------| 
E|-----------------------------------------------------------| 


Chorus: 
"See my eyes look back again once before, 
See my eyes look back again once before" 
Guitar 1: 
e|---------------------| 
B|---------------------| 
G|---------------------| x4 
D|---------------------| 
A|---------------------| 
E|-1-1--3-3--1-1--3-3--| 

Guitar 2 plays these arpeggios: 
e|-------1-3-------1-------------3-------1-3-------1-------------3-| 
B|-----1-----3-------1---------3-------1-----3-------1---------3---| 
G|---2---------4-------2-----4-------2---------4-------2-----4-----| x2 
D|-3-------------5-------3-5-------3-------------5-------3-5-------| 
A|-----------------------------------------------------------------| 
E|-----------------------------------------------------------------| 


"Once before" 
Guitar 1 starts playing this rhythm: 
e|---------------------------------| 
B|-1--1-1--3--3-3--1--1-1--3--3-3--| 
G|-2--2-2--4--4-4--2--2-2--4--4-4--| x2 
D|-3--3-3--5--5-5--3--3-3--5--5-5--| 
A|-3--3-3--5--5-5--3--3-3--5--5-5--| 
E|---------------------------------| 


Second guitar Solo: 
Guitar 1 plays this rhythm behind the Solo: 
e|---------------------| 
B|---------------------| 
G|---------------------| x12 
D|---------------------| 
A|---------------------| 
E|-1-1--3-3--1-1--3-3--| 

Guitar 2: 
e|---------------------------------------3--------------------------------| 
B|-3--5-5b6--6r5-3-3h5--0h3---------------3---------3-3/5\3---------------| 
G|---------------------------2-2/5-4-------4------5---------5--5\3--2-----| 
D|------------------------------------------5-----------------------------| 
A|------------------------------------------------------------------------| 
E|------------------------------------------------------------------------| 

e|--------------------------------------------------------------------------------| 
B|-3------3------3------3------8------5----8------5----8------5----8------5-------| 
G|-5b7----5b7----5b7----5b7----10b12--7b9--10b12--7b9--10b12--7b9--10b12--7b9--7--| 
D|--------------------------------------------------------------------------------| 
A|--------------------------------------------------------------------------------| 
E|--------------------------------------------------------------------------------| 

e|-10----10----10----10----10----10----10----10----| 
B|-13b15-13b15-13b15-13b15-13b15-13b15-13b15-13b15-| 
G|-------------------------------------------------| 
D|-------------------------------------------------| 
A|-------------------------------------------------| 
E|-------------------------------------------------| 

e|-10----10----10----10----10----10----10----10----| 
B|-13b15-13b15-13b15-13b15-13b15-13b15-13b15-13b15-| 
G|-------------------------------------------------| 
D|-------------------------------------------------| 
A|-------------------------------------------------| 
E|-------------------------------------------------| 

e|----------------------------------------------------------| 
B|-12-------12----12----12----12----12----12----12----12----| 
G|-14b16----14b16-14b16-14b16-14b16-14b16-14b16-14b16-14b16-| 
D|----------------------------------------------------------| 
A|----------------------------------------------------------| 
E|----------------------------------------------------------| 

e|-10----10----12----12----12----12----| 
B|-13b15-13b15-15b17-15b17-15b17-15b18-| 
G|-------------------------------------| 
D|-------------------------------------| 
A|-------------------------------------| 
E|-------------------------------------| 


Chorus: 
"See my eyes look back again once before, 
See my eyes look back again once before" 
Guitar 1: 
e|---------------------| 
B|---------------------| 
G|---------------------| x4 
D|---------------------| 
A|---------------------| 
E|-1-1--3-3--1-1--3-3--| 

Guitar 2 plays these arpeggios: 
e|-------1-3-------1-------------3-------1-3-------1-------------3-| 
B|-----1-----3-------1---------3-------1-----3-------1---------3---| 
G|---2---------4-------2-----4-------2---------4-------2-----4-----| x2 
D|-3-------------5-------3-5-------3-------------5-------3-5-------| 
A|-----------------------------------------------------------------| 
E|-----------------------------------------------------------------| 


Third Solo: 
"See my eyes look back again once before, 
See my eyes look back again once before" 
Guitar 1: 
e|---------------------------------| 
B|-1--1-1--3--3-3--1--1-1--3--3-3--| 
G|-2--2-2--4--4-4--2--2-2--4--4-4--| x4 
D|-3--3-3--5--5-5--3--3-3--5--5-5--| 
A|-3--3-3--5--5-5--3--3-3--5--5-5--| 
E|---------------------------------| 

Guitar 2: 
e|---------------------------------------------------------------------------| 
B|-8-8-8-8-8-8-8-8-8-8-8-8--6--5---------------------------------------------| 
G|--------------------------------7-/9--9b10-r9-7~-5---5---------------------| 
D|---------------------------------------------------7---7-5-7---------------| 
A|---------------------------------------------------------------------------| 
E|---------------------------------------------------------------------------| 


Fourth Solo: 
Guitar 2: 
e|---------------------------------------------------------------------------| 
B|-8--8--8-8-8-8-/10------------------------8-10b12r10p8----8-10b12r10p8-----| 
G|----------------------------9-9h10r9p7-----------------10--------------10--| 
D|-------------------------8-------------9-----------------------------------| 
A|--------------------8h10---------------------------------------------------| 
E|---------------------------------------------------------------------------| 

e|---------------------------------------------------------------------------| 
B|-8-10b12r10p8----8-10b12r10p8----5-5b6r5p3---------------------------------| 
G|--------------10--------------10-----------5-3-5b7-7-7-7-7-7-7-5-5-5-5-----| 
D|---------------------------------------------------------------------------| 
A|---------------------------------------------------------------------------| 
E|---------------------------------------------------------------------------| 

e|--------------------------------------| 
B|--------------------------------------| 
G|-5~--5~-5~--5~----12-12--12---12\-----| 
D|------------------12-12--12---12\-----| 
A|------------------10-10--10---10\-----| 
E|--------------------------------------| 


Outro: 
Guitar 1 plays this rhythm: 
e|------------------------------------| 
B|------------------------------------| 
G|------------------------------------| x8 
D|---8--8---8--9---9---9/11----11-----| 
A|-6------6------9---9------11----11--| 
E|------------------------------------| 

Guitar 2 plays this lead over the rhythm: 
e|---------------------------------------------------------------------------------------| 
B|---------------------------------------------------------------------------------------| 
G|-1/3---6b8--6-4-3-----3---6b8--6-4-3-----1---6b8--6-4-3-----4---6b8--6-4-3h4p3\1/3-----| 
D|---------------------------------------------------------------------------------------| 
A|---------------------------------------------------------------------------------------| 
E|---------------------------------------------------------------------------------------| 

e|----------------------------------------------------------------------| 
B|----------------------------------------------------------------------| 
G|-3h4p3\1---6b8--6-4-3-----4---6b8--6-4-3-----4---6b8--6-4-3-----1-----| 
D|----------------------------------------------------------------------| 
A|----------------------------------------------------------------------| 
E|----------------------------------------------------------------------| 


Instruments stop for: 
"Feeling in the" 


And then continue again: 
Guitar 1: 
e|------------------------------------| 
B|------------------------------------| 
G|------------------------------------| x4 
D|---8--8---8--9---9---9/11----11-----| 
A|-6------6------9---9------11----11--| 
E|------------------------------------| 

e|--------------------------------------------------------------------------------| 
B|--------------------------------------------------------------------------------| 
G|-6pb8r6--6-4-3-----4---6b8--6-4-3-----4---6b8--6-4-3-----4---6b8--6-4-3-----4---| 
D|--------------------------------------------------------------------------------| 
A|--------------------------------------------------------------------------------| 
E|--------------------------------------------------------------------------------| 

e|---------------------------| 
B|---------------------------| 
G|-6b8--6-4-3---3b4r3--1-----| 
D|---------------------------| 
A|---------------------------| 
E|---------------------------| 


Then guitar 2 starts playing this: 
e|---------------------7--7--7--| 
B|-6--6--6--4--6--7----7--7--7--| 
G|-7--7--7--5--7--8----8--8--8--| x3 
D|-8--8--8--6--8--9-------------| 
A|------------------------------| 
E|------------------------------| 

Guitar 1 continues the rhythm: 
e|------------------------------------| 
B|------------------------------------| 
G|------------------------------------| x3 
D|---8--8---8--9---9---9/11----11-----| 
A|-6------6------9---9------11----11--| 
E|------------------------------------| 


Instruments stop for: 
"Feeling's in the" 


Guitar 1: 
e|------------------------------------| 
B|------------------------------------| 
G|------------------------------------| x2 
D|---8--8---8--9---9---9/11----11-----| 
A|-6------6------9---9------11----11--| 
E|------------------------------------| 

Guitar 2: 
e|---------------------------------3-/4--6-----| 
B|---------------------------------------------| 
G|-6pb8r6-4-3-----4---6b8--6-4-3---------------| 
D|---------------------------------------------| 
A|---------------------------------------------| 
E|---------------------------------------------| 


Guitar 2 plays this again: 
e|---------------------7--7-7-7------------------------| 
B|-6--6--6--4--6--7----7--7-7-7---6--6--6--4--6--7-----| 
G|-7--7--7--5--7--8----8--8-8-8---7--7--7--5--7--8-----| 
D|-8--8--8--6--8--9---------------8--8--8--6--8--9-----| 
A|-----------------------------------------------------| 
E|-----------------------------------------------------| 

e|------------------------------------------------| 
B|------------------------------------------------| 
G|-1/3---3--4--6b8--6-4-3-----4/6---4/6--3--0-----| 
D|------------------------------------------------| 
A|------------------------------------------------| 
E|------------------------------------------------| 

Guitar 1 keeps playing the rhythm: 
e|------------------------------------| 
B|------------------------------------| 
G|------------------------------------| x4 
D|---8--8---8--9---9---9/11----11-----| 
A|-6------6------9---9------11----11--| 
E|------------------------------------| 

Fade out into reverb. 


************************************ 

| /   slide up 
| \   slide down 
| h   hammer-on 
| p   pull-off 
| ~   vibrato 
| +   harmonic 
| x   Mute note 
| b   Bend 
| pb  Pre-bend 
| r   Release bend 
| pbr Pre-bend release 
| brb Bend release bend 

************************************ 

-------------------------------------------------------------------------------------- 
                                       Track 08 
                                  Bold Arrow of Time 
-------------------------------------------------------------------------------------- 

This is the demo version of a song that would eventually end up on Innerspeaker. 
There are some fairly big differences in both structure and lyrics between the two 
versions, so if you are looking for the Innerspeaker version then search "The Bold 
Arrow of Time" (I've tabbed it out). Don't forget to add "The" for the Innerspeaker 
version, because the demo version doesn't have "The" in the title. 

Intro: 
The bends in the main riff are quarter step bends, which is basically bending to 
halfway between the two notes, which are G and G# in this instance. It's used a lot 
in blues playing (listen to the main riff to Spoonful by Cream to get a good 
example). The bend is only slight, so don't over-think it. 
Guitar 1: 
e|----------------------------------------| 
B|----------------------------------------| 
G|-----10--12b12.5--12--10~---------------| x4 
D|-12-----------------------12-10-12------| 
A|----------------------------------------| 
E|------------------------------------10--| 


Guitar 1 and 2: 
e|----------------------------------------| 
B|----------------------------------------| 
G|-----10--12b12.5--12--10~---------------| x2 
D|-12-----------------------12-10-12--12--| 
A|------------------------------------12--| 
E|------------------------------------10--| 


Guitar 1: 
e|-------------------------------------| 
B|-------------------------------------| 
G|-------------------------------------| x2 
D|---------------------------------12--| 
A|-----8--10b10.5--10--8~----------12--| 
E|-10---------------------10-8-10--10--| 

Guitar 2: 
e|----------------------------------------| 
B|----------------------------------------| 
G|-----10--12b12.5--12--10~---------------| x2 
D|-12-----------------------12-10-12--12--| 
A|------------------------------------12--| 
E|------------------------------------10--| 


Verse: 
"When I'm not with you time seems to go so..." 
Guitar 1: 
e|-10--------10----| 
B|-10--------12----| 
G|-10--------12----| 
D|-10--------12----| 
A|-12--------10----| 
E|-10--------------| 

Guitar 2: 
e|--------------------------------------------------------------------------10-------------| 
B|-----------------------------------------------------------------------------------------| 
G|---------------12-b14r12p10----10b12.-7--------------------------10-12b14----10----------| 
D|-10-/12--12\10--------------12--------------------------------12----------------12-10-12-| 
A|------------------------------------------10b12r10p8-------------------------------------| 
E|-----------------------------------------------------10-8-10-----------------------------| 


"...slow, 
Slow" 
Guitar 1: 
e|-------------------------------------| 
B|-------------------------------------| 
G|-------------------------------------| x5 
D|-------------------------------------| 
A|-----8--10b10.5--10--8~--------------| 
E|-10---------------------10-8-10--10--| 

Guitar 2 plays the riff an octave up: 
e|----------------------------------------| 
B|----------------------------------------| 
G|-----10--12b12.5--12--10~---------------| x3 
D|-12-----------------------12-10-12------| 
A|----------------------------------------| 
E|------------------------------------10--| 

And then guitar 2 plays this palm muted 
e|---------------------------------------------------| 
B|---------------------------------------------------| 
G|---------------------------------------------------| x2 
D|---------------------------------------------------| 
A|-------8-8-10-10-10pb10.5-10.5-10-10-8-8-----------| 
E|-10-10-----------------------------------10-10-8-8-| 


Verse: 
"I don't need the bold flow of time, you know, oh..." 
Guitar 1: 
e|-10--------10----| 
B|-10--------12----| 
G|-10--------12----| 
D|-10--------12----| 
A|-12--------10----| 
E|-10--------------| 

Guitar 2 starts playing this on "oh...": 
e|-------------------------------------------------| 
B|-------------------------------------------------| 
G|-12p10-12p10-12p10-12p10-12p10-12p10-12p10-12p10-| 
D|-------------------------------------------------| 
A|-------------------------------------------------| 
E|-------------------------------------------------| 


"...no" 
Guitar 1: 
e|-------------------------------------| 
B|-------------------------------------| 
G|-------------------------------------| x2 
D|-------------------------------------| 
A|-----8--10b10.5--10--8~--------------| 
E|-10---------------------10-8-10--10--| 

Guitar 2 plays the riff an octave up: 
e|----------------------------------------| 
B|----------------------------------------| 
G|-----10--12b12.5--12--10~---------------| x2 
D|-12-----------------------12-10-12------| 
A|----------------------------------------| 
E|------------------------------------10--| 


Guitar 1 and 2: 
e|-------------------------------------| 
B|-------------------------------------| 
G|-------------------------------------| x2 
D|-----8--10b10.5--10--8~--------------| 
A|-10---------------------10-8-10--10--| 
E|-------------------------------------| 


Guitar 1: 
e|-------------------------------------| 
B|-------------------------------------| 
G|-------------------------------------| 
D|-----10--12b12.5--12--10~------------| 
A|-12-----------------------12-10-12---| 
E|-------------------------------------| 

Guitar 2: 
e|----------------------------| 
B|----------------------------| 
G|----------------------------| 
D|----------------------------| 
A|----3--5b5.5--5--3~---------| 
E|-5------------------5-3-5---| 


Pre-bridge/solo section: 
"And time flows on" 
Guitar 1 and 2: 
e|----------------| 
B|----------------| 
G|----------------| 
D|-8---7---5------| 
A|-8---7---5------| 
E|-6---5---3------| 


Guitar 1 and 2: 
e|-------------------------------------| 
B|-------------------------------------| 
G|-------------------------------------| 
D|-------------------------------------| 
A|-----8--10b10.5--10--8~--------------| 
E|------------------------10-8-10--10--| 

Guitar 1: 
e|-----------------------------------| 
B|-----------------------------------| 
G|-----------------------------------| 
D|-----------------------------------| 
A|-----8--10b10.5--10--8~------------| 
E|-10---------------------10-8-10----| 

Guitar 2: 
e|------------------------------------| 
B|---------------------------13-------| 
G|---------------------------15b17r15-| 
D|------------------------------------| 
A|------------------------------------| 
E|------------------------------------| 


Bridge/solo section: 
Guitar 1 and 2: 
e|-------------| 
B|-------------| 
G|-11-11--9-11-| x12 
D|--X--X--X--X-| 
A|-12-12-10-12-| 
E|-10-10--8-10-| 


Guitar 1: 
e|-------------------------------------------------| 
B|-------------------------------------------------| 
G|-11--9--9--9-11--9--9--9-11--9-11--9-11--9-11--9-| 
D|--X--X--X--X--X--X--X--X--X--X--X--X--X--X--X--X-| 
A|-12-10-10-10-12-10-10-10-12-10-12-10-12-10-12-10-| 
E|-10--8--8--8-10--8--8--8-10--8-10--8-10--8-10--8-| 


Guitar 1 and 2: 
e|-------------| 
B|-------------| 
G|-11-11--9-11-| x4 
D|--X--X--X--X-| 
A|-12-12-10-12-| 
E|-10-10--8-10-| 


Guitar Solo: 
Guitar 1: 
e|-------------------------| 
B|-------------------------| 
G|-------------------------| x4 
D|-12--12--12.-12.-12.-12--| 
A|-12--12--12.-12.-12.-12--| 
E|-10--10--10.-10.-10.-10--| 

Guitar 2: 
e|---------------------------------------------------------------------------------| 
B|-10-----10-----10----10----10----10------10-----10-----10----10----10----10------| 
G|-12b14--12b14--12b14-12b14-12b14-12b14---12b14--12b14--12b14-12b14-12b14-12b14---| x2 
D|---------------------------------------------------------------------------------| 
A|---------------------------------------------------------------------------------| 
E|---------------------------------------------------------------------------------| 


Key change: 
Guitar 1: 
e|----------------------------| 
B|----------------------------| 
G|----------------------------| x4 
D|-7.--7--10--8.-8.-8.-8--10--| 
A|-7.--7--10--8.-8.-8.-8--10--| 
E|-5.--5---8--6.-6.-6.-6---8--| 

Guitar 2: 
e|-----------------------------------------------------| 
B|-5----5------6-----6-------5----5------6-----6-------| 
G|-7b9--7b9----8b10--8b10----7b9--7b9----8b10--8b10----| 
D|-----------------------------------------------------| 
A|-----------------------------------------------------| 
E|-----------------------------------------------------| 

e|----------------------------------------------------------| 
B|-5----5------6-----6-----8------5----5------6-----6-------| 
G|-7b9--7b9----8b10--8b10--10b12--7b9--7b9----8b10--8b10----| 
D|----------------------------------------------------------| 
A|----------------------------------------------------------| 
E|----------------------------------------------------------| 


Guitar 1: 
e|------------------------------------------| 
B|------------------------------------------| 
G|---------------------------7-7-7-7-b9-----| 
D|-7.--7--7.-7.-7.-7--7.--7-----------------| 
A|-7.--7--7.-7.-7.-7--7.--7--------------8--| 
E|-5.--5--5.-5.-5.-5--5.--5-----------------| 

Guitar 2: 
e|---------------------------------------------------------------------------------| 
B|-10-----10-----10----10----10----10------10-----10-----10----10----10----10------| 
G|-12b14--12b14--12b14-12b14-12b14-12b14---12b14--12b14--12b14-12b14-12b14-12b14---| x2 
D|---------------------------------------------------------------------------------| 
A|---------------------------------------------------------------------------------| 
E|---------------------------------------------------------------------------------| 


"Oh" 
Guitar 1: 
e|------------------------| 
B|------------------------| 
G|------------------------| x4 
D|-12--12--12.-12.-12-12--| 
A|-12--12--12.-12.-12-12--| 
E|-10--10--10.-10.-10-10--| 

Guitar 2: 
e|---------------------------------------------------------------------------------| 
B|-10-----10-----10----10----10----10------10-----10-----10----10----10----10------| 
G|-12b14--12b14--12b14-12b14-12b14-12b14---12b14--12b14--12b14-12b14-12b14-12b14---| 
D|---------------------------------------------------------------------------------| 
A|---------------------------------------------------------------------------------| 
E|---------------------------------------------------------------------------------| 

e|-----------------------------------------------------------------------------| 
B|-10-----10-----10----10----10----10----------------10----10----10----10------| 
G|-12b14--12b14--12b14-12b14-12b14-12b14-------------12b14-12b14-12b14-12b14---| 
D|-----------------------------------------5b7--5b7----------------------------| 
A|-----------------------------------------------------------------------------| 
E|-----------------------------------------------------------------------------| 


Guitar 1: 
e|------------------| 
B|------------------| 
G|------------------| 
D|------------------| 
A|------------------| 
E|-10-10-10--10-10--| 

Guitar 2: 
e|-----------------------------------------| 
B|-10-----10-----10----10----10----10------| 
G|-12b14--12b14--12b14-12b14-12b14-12b14---| 
D|-----------------------------------------| 
A|-----------------------------------------| 
E|-----------------------------------------| 


Heavy chord section: 
Guitar 1 and 2: 
e|-------------| 
B|-------------| 
G|-11-11--9-11-| x16 
D|--X--X--X--X-| 
A|-12-12-10-12-| 
E|-10-10--8-10-| 


Guitar 1 and 2: 
e|----------------------------------------------------------| 
B|----------------------------------------------------------| 
G|----------------------------------------------------------| x3 
D|-12-12-12--10--12-12-12--10---12-12-12--10-12--10-12--10--| 
A|----------------------------------------------------------| 
E|-10-10-10---8--10-10-10---8---10-10-10---8-10---8-10---8--| 


Guitar 1: 
e|---------------------------------------------------------------| 
B|---------------------------------------------------------------| 
G|---------------------------------------------------------------| 
D|-12-12-12--10--12-12-12--10---12-12-12--10-12--10-12--10---12--| 
A|---------------------------------------------------------------| 
E|-10-10-10---8--10-10-10---8---10-10-10---8-10---8-10---8---10--| 

Guitar 2: 
Strum the ending chord really hard and rapidly: 
e|-------------------------------------10101010101010101010-10--| 
B|-------------------------------------10101010101010101010-10--| 
G|-------------------------------------11111111111111111111-11--| 
D|-12-12--12-12--10--12-12--12-12--10--12121212121212121212-12--| 
A|-------------------------------------12121212121212121212-12--| 
E|-10-10--10-10---8--10-10--10-10---8--10101010101010101010-10--| 


"hmm  hmm  hmm  hmm  hmm  hmm hmm hmm  hmm" 


Guitar 1 and 2: 
e|--------| 
B|--------| 
G|--------| 
D|-12-----| 
A|-12-----| 
E|-10-----| 

Outro: 
"Oh, 
Oh" 
Guitar 1 and 2: 
e|-------------------------------------| 
B|-------------------------------------| 
G|-------------------------------------| x6 
D|-------------------------------------| 
A|-----8--10b10.5--10--8~--------------| 
E|-10---------------------10-8-10--10--| 

End with weird whammy pedal harmonic noises. 



************************************ 

| /   slide up 
| \   slide down 
| h   hammer-on 
| p   pull-off 
| ~   vibrato 
| +   harmonic 
| x   Mute note 
| b   Bend 
| pb  Pre-bend 
| br  Bend release 
| pbr Pre-bend release 
| brb Bend release bend 
| .   Staccato (mute note after playing it) 

************************************ 


And there you have it! Be sure to rate and comment on this album tab if you spot 
any errors so I can fix them. Thanks! 
		  

auto scroll beats size up size down change color hide chords drawings
tab show chords e-chords YouTube Clip e-chords hide all tabs e-chords go to top tab

share