Tamara Castro

Zamba De Amor En Vuelo

Tamara Castro

tabs Expert expert

by  JESSBT

save to print version add songbook text version e-mail correct tuner
chordsukulelecavacokeyboardtabbassdrumsharmonicaflute Guitar Pro
close

there isn't a video lesson for this song

chords

Zamba De Amor En Vuelo

	  		Re m  
---1-----------1------------3---1-----0---------------------- 
------3------------3----------------------------------------- 
---------2-------------2------------------------------------- 
---0--------------------------------------------------------- 
------------------------------------------------------------- 
------------------------------------------------------------- 

La m 
---0-------------0-------------1----0----0------------------- 
-------1-------------1--------------------------------------- 
----------2---------------2---------------------------------- 
---2--------------------------------------------------------- 
------------------------------------------------------------- 
------------------------------------------------------------- 

MI7 
----------------------------0-------------------------------- 
---3------------3---------------3----1----------------------- 
-------1------------1---------------------------------------- 
-----------0------------0------------------------------------ 
------------------------------------------------------------- 
---0--------------------------------------------------------- 

Luego tienen que hacer un pase en las cuerdas 5 a 2(osea las del medio)y despues  
repetis los punteos anteriores y a continuacion haces: 

--0--1------------------------------------------------------- 
--------3---2------------------------------------------------ 
----------------2---1----------2---1------------------------- 
-------------------------4----------------------------------- 
--------------------------------------------------------0---- 
---------------------------------------------0--2---4-------- 
		  

auto scroll beats size up size down change color hide chords drawings
tab show chords e-chords YouTube Clip e-chords hide all tabs e-chords go to top tab

share