System Of A Down

Lonely Day (ver.2)

System Of A Down

tabs Beginner beginner

by  GUPATO

save to print version add songbook text version e-mail correct tuner
chordsukulelecavacokeyboardtabbassdrumsharmonicaflute Guitar Pro
close

there isn't a video lesson for this song

chords

Lonely Day (ver.2)

	  		Riff:(Tocar até o Refrão) 
     Am       F      C     
e|--------------------------------| 
b|----1-------1------1------0-----| 
g|---2-2-----2-2----0-0----1-1----| 
D|--2---2---3---3--2---2--2---2---| 
A|-0--------------3---------------| 
E|--------1--------------0--------| 
 
Refrão:(2x) 
e|----------------------| 
b|----------------------| 
g|-----------4-4--3-3---| 
D|-6-6--2-2--4-4--3-3---| 
A|-6-6--2-2--2-2--1-1---| 
E|-4-4--0-0-------------|  
 
Riff:(Tocar até o Refrão) 
     Am       F      C      E 
e|--------------------------------| 
b|----1-------1------1------0-----| 
g|---2-2-----2-2----0-0----1-1----| 
D|--2---2---3---3--2---2--2---2---| 
A|-0--------------3---------------| 
E|--------1--------------0--------| 
 
Refrão:(2x) 
e|----------------------| 
b|----------------------| 
g|-----------4-4--3-3---| 
D|-6-6--2-2--4-4--3-3---| 
A|-6-6--2-2--2-2--1-1---| 
E|-4-4--0-0-------------|  
 
Ponte:(Palm Mute) 
e|----------------------------| 
b|----------------------------| 
g|----------------------------| 
D|-6-6-6-6-6-6--2-2-2-2-2-2---| 
A|-6-6-6-6-6-6--2-2-2-2-2-2---| 
E|-4-4-4-4-4-4--0-0-0-0-0-0---|  
 
(Solo em desenvolvimento) 
 
Refrão:(6x) 
e|----------------------| 
b|----------------------| 
g|-----------4-4--3-3---| 
D|-6-6--2-2--4-4--3-3---| 
A|-6-6--2-2--2-2--1-1---| 
E|-4-4--0-0-------------|  
  
Riff:(2x,e então) 
     Am       F      C      E 
e|--------------------------------| 
b|----1-------1------1------0-----| 
g|---2-2-----2-2----0-0----1-1----| 
D|--2---2---3---3--2---2--2---2---| 
A|-0--------------3---------------| 
E|--------1--------------0--------| 
 
Finalização(c/pequena pestana)  
e|-------------| 
b|-------------| 
g|---------9---| 
D|-9-----------| 
A|-7---7-------| 
E|-7-7---7-----| 
 
dúvidas:[email protected] pode add no MSN também! 
 
 

		  

Full key step upFull key step up
Half key step upHalf key step up
Half key step downHalf key step down
Full key step downFull key step down
hide glossary

See also:

tabs System Of A Down - I-E-A-I-A-I-O tabs System Of A Down - Deer Dance tabs System Of A Down - Kill Rock N Roll tabs Linkin Park - In the end (ver. 3) tabs System Of A Down - Psycho tabs Linkin Park - Crawling
e-chords

Other versions:

tabs System Of A Down - Lonely Day tabs System Of A Down - Lonely day (full) tabs System Of A Down - Lonely Day (intro) tabs System Of A Down - Lonely Day (live) tabs System Of A Down - Lonely Day (Solo ) tabs System Of A Down - Lonely Day (ver.2)
auto scroll beats size up size down change color hide chords drawings
tab show chords e-chords YouTube Clip e-chords hide all tabs e-chords go to top tab

share