System Of A Down

home > System Of A Down

Lonely Day Tab

System Of A Down

Difficulty: BeginnerBeginner

by patrickmartins

tuner correct add songbook print version text version save to e-mail
chordsukulelecavacokeyboardtabbassdrumsharmonicsflute Guitar Pro
chords

Lonely Day

Year: 2005 - Album: Hypnotize

(Malakian)

  		   
Lonely Day   
   
INTRO:   
   
     Am    F#m5+   C     F6(5m)   
Db|--------2-----------1----------   
Ab|--0-----------3----------------   
Db|---2---2-0---0-2---2-0---0-----   
Gb|----2-2---2-2---0-0---2-2------   
Bb|-----1-----0-----1-----0-------   
eb|-------------------------------   
   
Such a lonely day .... And it?s mine   
The most loneliest day of my life   
Such a lonely day .... Should be banned   
It?s a day that I can?t stand   
   
   
A5        F5                  C5     E5   
 The most loneliest day of my li....fe x2   
   
     Am    F#m5+   C     F6(5m)   
Db|--------2-----------1----------   
Ab|--0-----------3----------------   
Db|---2---2-0---0-2---2-0---0-----   
Gb|----2-2---2-2---0-0---2-2------   
Bb|-----1-----0-----1-----0-------   
eb|-------------------------------   
   
Such a lonely day .... Shouldn?t exist   
It?s a day that ill never miss   
Such a lonely day .. And it?s mine   
The most loneliest day of my life   
   
   
F5         E5   
And if you go   
G5        A5   
I wanna go with you   
F5          E5   
And if you die   
G5        A5   
I wanna die with you   
F5  P.M   E5   
Take your hand and walk away   
   
solo: A5 F5 C5 E5   
   
   
A5       F5                  C5     E5   
The most loneliest day of my li....fe x3   
   
     Am    F#m5+   C     F6(5m)   
Db|--------2-----------1----------   
Ab|--0-----------3----------------   
Db|---2---2-0---0-2---2-0---0-----   
Gb|----2-2---2-2---0-0---2-2------   
Bb|-----1-----0-----1-----0-------   
eb|-------------------------------   
Such a lonely day   
And its mine   
Its a day I'm glad I survived   
   



	  

Full key step upFull key step up
Half key step upHalf key step up
Half key step downHalf key step down
Full key step downFull key step down
Search Paypal
auto scroll beats size up size down change color hide chords drawings
tab show chords e-chords YouTube Clip e-chords hide all tabs e-chords go to top tab