System Of A Down

A.T.W.A. (ver. 4)

System Of A Down

tabs

by  XFOX

save to print version add songbook text version e-mail correct tuner
chordsukulelecavacokeyboardtabbassdrumsharmonicaflute Guitar Pro
close

there isn't a video lesson for this song

chords

A.T.W.A. (ver. 4)

	  		INTRO: 

e|---------------------------------------------------| 
B|---------------------------3-----------------------| 
G|---2-----1-----4-----6-----------6-----4-----2-----| 
D|---------------------------------------------------| 
G|-----------------------0-2-------------------------| 
E|-2---2-0---0-4---0-5---------0-5---0-4---0-2---2-2-| 

Nanananana.......nananananana. 

Continua tocando a introdução: 

Hey you 
See me? 
Pictures crazy 
All the world I've seen before me passing by 
I've got nothing to gain, to lose 
All the world I've seen before me passing by 


Entra com o Refrão usando o seguinte riff: 

e|----------------|----------------| 
B|----------------|----------------| 
G|----------------|----------------| 
D|-4-4-4-4-4-4-4--|-4-4-4-4-4-4-4--| 
A|-4-4-4-4-4-4-4--|-4-4-4-4-4-4-4--| 
E|-2-2-2-2-2-2-2--|-2-2-2-2-2-2-2--| 

    
Refrão (4x):  You dont care about how i fell   
              I dont fell it anymore  

REPETE A INTRODUÇÃO: 

e|---------------------------------------------------| 
B|---------------------------3-----------------------| 
G|---2-----1-----4-----6-----------6-----4-----2-----| 
D|---------------------------------------------------| 
G|-----------------------0-2-------------------------| 
E|-2---2-0---0-4---0-5---------0-5---0-4---0-2---2-0-| 

Nananananana..... 

Hey you, are me 
Not so pretty 
All the world I've seen before me passing by 
Silent my voice 
I've got no choice 
All the world I've seen before me passing by 

NOVAMENTE O Refrão:  

e|----------------|----------------| 
B|----------------|----------------| 
G|----------------|----------------| 
D|-4-4-4-4-4-4-4--|-4-4-4-4-4-4-4--| 
A|-4-4-4-4-4-4-4--|-4-4-4-4-4-4-4--| 
E|-2-2-2-2-2-2-2--|-2-2-2-2-2-2-2--| 

Refrão (4x):  You dont care about how i fell   
              I dont fell it anymore  

LOGO APÓS O Refrão ENTRA O SEGUINTE RIFF: 

      (PARTE 1)          (PARTE2) 
e|----------------|  |-----------------| 
B|----------------|  |-----------------| 
G|----------------|  |-----------------| 
D|----------------|  |-2-2-------------| 
A|-4-4-4-4-4-4-4--|  |-2-2-------------| 
E|-2-2-2-2-2-2-2--|  |-----------------| 

(PARTE 1) 
I don't see 
(PARTE 2) 
Anymore 
(PARTE 1) 
I don't hear 
(PARTE 2) 
Anymore 
(PARTE 1) 
I don't speak 
(PARTE 2) 
Anymore 
(PARTE 1) 
I don't feel 

LOGO APÓS ENTRA COM O SEGUINTE SOLO: 

e|--------|--------|--------|--------|--------|--------|--------| 
B|--------|--------|--------|--------|--------|--------|--------| 
G|--------|--------|--------|--------|--------|--------|--------| 
D|-2--2-2-|-6--6-6-|-7--7-7-|-9--9-9-|-7--7-7-|-6--6-6-|-2--2-2-| 
G|-2--2-2-|-6--6-6-|-7--7-7-|-9--9-9-|-7--7-7-|-6--6-6-|-2--2-2-| 
E|-0--0-0-|-4--4-4-|-5--5-5-|-7--7-7-|-5--5-5-|-4--4-4-|-0--0-0-| 

Nananananana...nananana 

  (1) (2) (3) (4) (5) (6) (7) 
e|---|---|---|---|---|---|---| 
B|---|---|---|---|---|---|---| 
G|---|---|---|---|---|---|---| 
D|-2-|-6-|-7-|-9-|-7-|-6-|-2-| 
G|-2-|-6-|-7-|-9-|-7-|-6-|-0-| 
E|-0-|-4-|-5-|-7-|-5-|-4-|-0-| 

  (1) 
Hey you 
  (2) 
See me? 
(3)        (4) 
Pictures crazy 
   (5)        (6)          (7)           (1) 
All the world I've seen before me passing by 

 (1)         (2) 
I've got nothing  
(3)         (4) 
to gain, to lose 
(5)           (6)            (7)          (1) 
All the world I've seen before me passing by 

O Refrão MAIS UMA VEZ: 

e|----------------|----------------| 
B|----------------|----------------| 
G|----------------|----------------| 
D|-4-4-4-4-4-4-4--|-4-4-4-4-4-4-4--| 
A|-4-4-4-4-4-4-4--|-4-4-4-4-4-4-4--| 
E|-2-2-2-2-2-2-2--|-2-2-2-2-2-2-2--| 

Refrão (4x):  You dont care about how i fell   
              I dont fell it anymore  

E FINALMENTE: 

   (PARTE 1)          (PARTE2) 
e|----------------|  |-----------------| 
B|----------------|  |-----------------| 
G|----------------|  |-----------------| 
D|----------------|  |-2-2-------------| 
A|-4-4-4-4-4-4-4--|  |-2-2-------------| 
E|-2-2-2-2-2-2-2--|  |-----------------| 

(PARTE 1) 
I don't sleep 
(PARTE 2) 
Anymore 
(PARTE 1) 
I don't eat 
(PARTE 2) 
Anymore 
(PARTE 1) 
I don't live 
(PARTE 1) 
Anymore 
(PARTE 1) 
I don't feel
		  

See also:

tabs System Of A Down - Needles tabs Korn - Alone I Break tabs Linkin Park - In the end tabs Linkin Park - Points Of Authority tabs System Of A Down - Boom tabs System Of A Down - Sugar
e-chords

Other versions:

tabs System Of A Down - A.T.W.A tabs System Of A Down - A.T.W.A (Ver.2) tabs System Of A Down - A.T.W.A. tabs System Of A Down - A.T.W.A. (ver. 2) tabs System Of A Down - A.T.W.A. (ver. 4) tabs System Of A Down - Atwa
auto scroll beats size up size down change color hide chords drawings
tab show chords e-chords YouTube Clip e-chords hide all tabs e-chords go to top tab

share