System Of A Down

aerials (vers.3) Tab

System Of A Down

Difficulty: nolevelnolevel

by %5FMaiden%5F

tuner correct add songbook print version text version save to e-mail
chordsukulelecavacokeyboardtabbassdrumsharmonicsflute Guitar Pro
close

there isn't a video lesson for this song

request
chords

aerials (vers.3)

  		(riff inicial) 
 
E |------------------------------------| 
B |--6-5-3-8-6-5-6-6-8-10-11-10-8-6-5-3| 
G |------------------------------------| 
D |------------------------------------| 
A |------------------------------------| 
E |------------------------------------| 
 
(life is waterfall....) 
 
E|---------------------------------------| 
B|---------------------------------------| 
G|-7-7-5-7-5-7-5-7-8-7-7-5-7-5-7-5-------| 
D|----------------------------------8-9-8|                                 | 
A|---------------------------------------| 
E|---------------------------------------| 
 
E|-8-8-8--8-8-8---8-8-8--8-8-8--| 
B|------8-------6-------5------3| 
G|------------------------------| 
D|------------------------------| 
A|------------------------------| 
E|------------------------------| 
 
quando ele fala "aerials in the sky...." é só você repetir o riff inicial 

	  

Search Paypal
auto scroll beats size up size down change color hide chords drawings
tab show chords e-chords YouTube Clip e-chords hide all tabs e-chords go to top tab

share with facebook