Symphony X

Inferno (Unleash The Fire)

Symphony X

tabs Expert expert

by  DU HAST

save to print version add songbook text version e-mail correct tuner
chordsukulelecavacokeyboardtabbassdrumsharmonicaflute Guitar Pro
close

there isn't a video lesson for this song

chords

Inferno (Unleash The Fire)

	  		                         Symphony X 
Oo>=-=-==-=-===============\<0>/=================-=-==-=-==-=-==-=-===============\<0>/=================-=-==-=-==-=-==-=-===============\<0>/=================-=-==-=-=A1                         
---------------------------- -10----------------  
---------------------------- ----13-12----------  
-13-12-10-12----0-0-0-0----- ----------13-12-10-  
---------------------------- -------------------  
---------------------------- -------------------  
---------------------------- -------------------  
 
*Repeat Rythm 1 
 
B1 
-16-15-13--11-10-----10------------------------- 
-----------------13------13-12------------------ 
--------------------------------13-12-10-------- 
------------------------------------------------ 
------------------------------------------------ 
------------------------------------------------ 
 
*Repeat Rythm 1  
 
*A1 
 
*Repeat Rythm 1 
 
 
Passe 2 
--16-15-13-11-10----10---------------------- 
-----------------13----13-12---------------- 
-----------------------------13-12-10-13-12- 
-------------------------------------------- 
-------------------------------------------- 
-------------------------------------------- 
 
 
--------------------------------  
--------------------------------  
-10-----------------------------  
----13-12-10-12-10-9------------ 
---------------------11-10-8-10-  
--------------------------------  
 
 
 
Oo>=-=-==-=-===============\<0>/=================-=-==-=-==-=-==-=-===============\<0>/=================-=-==-=-=Chorus 
------------------------------------------------------------- 
------------------------------------------------------------- 
------------------------------------------------------------- 
-5-------------5h6p5p3h5--5h6p5p3h5--6-5-3-----------7------- 
-5-----------------------------------------6-5-3-----7------- 
-3-3-3--3-3-3----------------------------------------5-5-5--- 
                                    
                                  A. 
--------------------------------- --------------------------- 
--------------------------------- -----------------6-8------- 
--------------------------------- -----5--7------8----------- 
--------7h8p7p5h7------7h8p7p5h7- --8------------------------ 
--------------------------------- --------------------------- 
-5-5-5--------------------------- --------------------------- 
 
 
Go Back to Rythm 1 
 
 
 
Oo>=-=-==-=-===============\<0>/=================-=-==-=-==-=-==-=-===============\<0>/=================-=-==-=-=Chorus Without A. (go to B.) 
 
B. 
----------------------------------- 
----------------------------------- 
----------------------------------- 
-8---7---5--------------Chorus----- 
--------------8-7-5-----.....------ 
----------------------------------- 
 
 
Chorus (x2) 
------------------------------------------------------------- 
------------------------------------------------------------- 
----------------------6-----------------------------------5-- 
-3--------------------6-----------------------------------5-- 
-3--------------------4--4-4-4--4-4-4--4-4-4--4-4-4--4-4--3-- 
-1--1-1-1--1-1-1--1-1---------------------------------------- 
 
------------------------------------------------------------- 
------------------------------------------------------------- 
------------------------------------------------------------- 
-----------------3---------------------------5----6---------- 
-3-3-3--3--------3---------------------------6----6---------- 
-----------4--3--1--1-1-1--1-1-1--1-1-1--1-1-3----4----4-4-4- 
 
 
------------------------------------------------------------- 
------------------------------------------------------------- 
----------3-----------------------------------5-------------- 
----------3-----------------------------------5-------------- 
----------1--1-1-1--1-1-1--1-1-1--1-1-1--1-1--3--3-3-3--3-3-3 
4-4-4--4-4--------------------------------------------------- 
 
	     Box 1                              Box 2  
------------ ---------------------------------  -----5------- 
------------ ---------------------------------  -----5------- 
------------ 6-5-3----------------------------  -----7------- 
------------ ------6-5-3-5-3-2----------------  -----7-------  
-3-3-3--3-3- ------------------4-3-1----------  -----5------- 
------------ ------------------------4-3-1-0--  ------------- 
 
 
Go back to Rythm 1 
 
 
Oo>=-=-==-=-===============\<0>/=================-=-==-=-==-=-==-=-===============\<0>/=================-=-==-=-==-=-==-=-===============\<0>/=================-=-==-=-=Chorus... 
 
 
 
Oo>=-=-==-=-===============\<0>/=================-=-==-=-=B1 instead of Passe 1) 
 
Then.. 
 
END 
----------------------13-10---------------------------------- 
----------------------------12------------------------------- 
-13-12-10-0-10-8-7-0-----------13-10-----13-12-10-0-10-8-7-0- 
-------------------------------------12---------------------- 
------------------------------------------------------------- 
------------------------------------------------------------- 
 
-16-11------------------------------------------------------- 
-------15---------------------------------------------------- 
----------16-11----13-12-10-0-12-10-8-0-10-8-7-0-8-7-6-0-7-5- 
---------------15-------------------------------------------- 
------------------------------------------------------------- 
------------------------------------------------------------- 
 
------------------------------------------------------------- 
------------------------------------------------------------- 
-4---------6-----------(-6/4/7)------------------------------ 
---6-5-3---6-----------(------)-----etc---------------------- 
---------6-4-----------(-4/2/6)------------------------------ 
------------------------------------------------------------- 
 
Done.. 
 
Oo>=-=-==-=-===============\<0>/=================-=-==-=-=
	      

Full key step upFull key step up
Half key step upHalf key step up
Half key step downHalf key step down
Full key step downFull key step down
hide glossary

See also:

tabs Jack Johnson - Good People tabs Rage Against The Machine - Killing In The Name (ver. 2) tabs Blue Oyster Cult - Dont Fear The Reaper tabs R.E.M. - Losing my religion tabs Smashing Pumpkins - Today tabs Foo Fighters - Learn to Fly (acoustic version)
e-chords

Other versions:

tabs Kreator - Inferno tabs Nasty Savage - Inferno tabs Symphony X - Inferno (Unleash The Fire) tabs Shaman - Inferno Veil
auto scroll beats size up size down change color hide chords drawings
tab show chords e-chords YouTube Clip e-chords hide all tabs e-chords go to top tab

share