Symphony X

A Foll's Paradise Tab

Symphony X

Difficulty: nolevelnolevel

by Du+Hast

tuner correct add songbook print version text version save to e-mail
chordsukulelecavacokeyboardtabbassdrumsharmonicsflute Guitar Pro
close

there isn't a video lesson for this song

chords

A Foll's Paradise

  		Symphony X - A Foolīs Paradise 
from "V - The New Mythology Suite". 
Tabbed by Pontus Hermansson ([email protected]) 
 
Tuned down one whole step: 
E-D, A-G, D-C, G-F, B-A, E-D 
 
Intro: (I guess itīs dubbel guitars here) 
||------------------------------------------------------------------------------ 
||--------------------------------6p5------------------------------------------- 
||*----------------------------------7p5p4-------------------------------------- 
||*--10\9----------10\9-------------------7--10\9----------10\9----------10----- 
||----8\7--7-7-7-7--8\7--7-7-7-7--------------8\7--7-7-7-7--8\7--7-7-7-7--8----- 
||------------------------------------------------------------------------------ 
 
--------------------------------------------------------------------------------| 
------------------------------6p5-----------------6p5-------6p5--6p5------6p5---| 
---------------------------------7p5p4---------------7---------7----7--------7-*| 
-10\9----------10\9-------------------7----------------------------------------*| 
--8\7--7-7-7-7--8\7--7-7-7-7--------------7-7-7-7-------7-7-----------7-7-------| 
--------------------------------------------------------------------------------| 
 
|-------------------------------------|| 
|-------------------------------------|| 
|------5p4--5p4-------5p4-------------|| 
|---------7----7---------7------------|| 
|--7-7------------7-7------7-7-7p6----|| 
|----------------------------------9--|| 
 
Verse 1:			   3x			         		   3x 
||------------------------------------|----------|------------------------------------|--------| 
||------------------------------------|----------|------------------------------------|--------| 
||------------------------------------|----------|------------------------------------|--------| 
||-5h6----------5h6-------------------|--4-------|-5h6----------5h6-------------------|--4--2--| 
||-4---4-4-4-4--4----4-4-4-4--4-4-4-4-|--2--3ah--|-4---4-4-4-4--4----4-4-4-4--4-4-4-4-|--2--0--| 
||------------------------------------|----------|------------------------------------|--------| 
 
				  3x		               		          2x 
|------------------------------------|----------|------------------------------------| 
|------------------------------------|----------|------------------------------------| 
|------------------------------------|----------|------------------------------------| 
|-5h6----------5h6-------------------|--4-------|-5h6----------5h6-------------------| 
|-4---4-4-4-4--4----4-4-4-4--4-4-4-4-|--2--3ah--|-4---4-4-4-4--4----4-4-4-4--4-4-4-4-| 
|------------------------------------|----------|------------------------------------| 
 
|--------------------------------------------------------------------|| 
|--------------------------------------------------------------------|| 
|--------------------------------------------------------------------|| 
|-5h6----------5h6---------------------------------------------------|| 
|-4---4-4-4-4--4----4-4-4-4-4-4--4-6-6/7--7p6-4-3----------4-7--6-4--|| 
|-------------------------------------------------5-4-3--6-----------|| 
 
Pre-Chorus: 
||------------------------------------------------------------ 
||------------------------------------------------------------ 
||*----------------------------------------------------------- 
||*----------------------------------------------------------- 
||--6-4-3-0-4-3-----------4---4-3--6-4-3-0-4-3---------------- 
||-------------5-4--2-4-5---5-----------------5-4--2-4-2-5ah-- 
 
-----------------------------------------------------------------| 
-----------------------------------------------------------------| 
----------------------------------------------------------------*| 
-----------------------------------------2-1-4-2-6-4-7-6-4------*| 
--6-4-3-0-4-3-----------4---4-3--4-3-6-4------------------7-6-4--| 
-------------5-4--2-4-5---5--------------------------------------| 
 
|-------------------------------|| 
|-------------------------------|| 
|-------------------------------|| 
|--4-------------3-3-3-3-3------|| 
|----/7-6-4------1-1-1-1-1-1ah--|| 
|-----------5-4-----------------|| 
 
Chorus: (X2) 
||----------------------------------------------------------------------| 
||----------------------------------------------------------------------| 
||----------------------------------------------------------------------| 
||--5------------------------------------------3-----------3-6-5-3------| 
||--3--3-3--3-3-3-3--3-3-3-3--3-3-3-3--2-5-2-5---5-3-5-2-5---------6-5--| 
||----------------------------------------------------------------------| 
 
|----------------------------------------------------------------------| 
|----------------------------------------------------------------------| 
|----------------------------------------------------------------------| 
|--5------------------------------------------3-----------3-6-5-3------| 
|--3--3-3--3-3-3-3--3-3-3-3--3-3-3-3--2-5-2-5---5-3-5-2-5---------6-5--| 
|----------------------------------------------------------------------| 
 
|-----------------------------------------------------------------------| 
|-----------------------------------------------------------------------| 
|-----------------------------------------------------------------------| 
|-5----------------------------------3----------------------------------| 
|-3--3-3--3-3-3-3--3-3-3-3--3-3-3-3--1--1-1--1-1-1-1--1-1-1-1--1-1-1-1--| 
|-----------------------------------------------------------------------| 
 
|----------------------------------------------------------------------|| 
|----------------------------------------------------------------------|| 
|----------------------------------------------------------------------|| 
|-3--------------------------------------------------------------------|| 
|-0--0-0--0-0-0-0--0-0-0-0--0-0-0-0--------1-3-1-----1-----------------|| 
|------------------------------------1-3-4-------4-3---4-3-1--4-3-1-3--|| 
 
Chorus ends second time like this: 
|--------------------------------------| 
|--------------------------------------| 
|--------------------------------------| 
|--------------------------------------| 
|--------1-3-1-----1-------------------| 
|--1-3-4-------4-3---4-3-1--4-3-1-3ah--| 
 
|----------------------------------------------------------------------| 
|----------------------------------------------------------------------| 
|----------------------------------------------------------------------| 
|----------------------------7p6p4-------------------------------------| 
|-7\6-----------7\6---------------7p6p4--7\6-----------7\6-----------7-| 
|-5\4--4-4-4-4--5\4--4-4-4-4-------------5\4--4-4-4-4--5\4--4-4-4-4--5-| 
 
|---------------------------------------------------------------------------------| 
|---------------------------------------------------------------------------------| 
|---------------------------------------------------------------------------------| 
|----------------------------7p6p4--------------7p6p4-----7p6p4-------7p6p4-------| 
|-7\6-----------7\6---------------7p6p4------------------------7p6p4-------7p6p4--| 
|-5\4--4-4-4-4--5\4--4-4-4-4------------4-4-4-4-------4-4-------------------------| 
 
Verse 2:			  3x		    				  2x 
|------------------------------------|----------|------------------------------------| 
|------------------------------------|----------|------------------------------------| 
|------------------------------------|----------|------------------------------------| 
|-5h6----------5h6-------------------|--4-------|-5h6----------5h6-------------------| 
|-4---4-4-4-4--4----4-4-4-4--4-4-4-4-|--2--3ah--|-4---4-4-4-4--4----4-4-4-4--4-4-4-4-| 
|------------------------------------|----------|------------------------------------| 
 
|-------------------------------------------------------------------|| 
|-------------------------------------------------------------------|| 
|-------------------------------------------------------------------|| 
|-5h6----------5h6--------------------------------------------------|| 
|-4---4-4-4-4--4----4-4-4-4-4-4--4-6-6/7--7p6-4-3---------4-7--6-4--|| 
|-------------------------------------------------5-4-3--6----------|| 
 
Repeat pre-Chorus & Chorus: 
 
 (Dies Irae, Dies Illa) 
|------------------------------| 
|------------------------------| 
|--2-----2---------------------| 
|--2-----2-----2-----2---7--7--| 
|--0-----0-----2-----2---5--4--| 
|--------------0-----0---------| 
 
Guitar solo: sorry I donīt mind this solo!!! 
 
Guitar Solo 1 rytm:		     3x						      3x 
|---------------------------------------|--------|---------------------------------------|-------------| 
|---------------------------------------|--------|---------------------------------------|-------------| 
|---------------------------------------|--------|---------------------------------------|-------------| 
|--6\3-----------6\3--------------------|--------|--6\3-----------6\3--------------------|-------------| 
|--4\1--1-1-1-1--4\1--1-1-1-1--1-1-1-1--|--4--6--|--4\1--1-1-1-1--4\1--1-1-1-1--1-1-1-1--|--4-6-4-6ah--| 
|---------------------------------------|--2--4--|---------------------------------------|-------------| 
 
Synth Solo rytm:		   3x				                 2x 
|-------------------------------------|--------|------------------------------------| 
|-------------------------------------|--------|------------------------------------| 
|-------------------------------------|--------|------------------------------------| 
|--5h6----------5h6-------------------|--------|-5h6----------5h6-------------------| 
|--4---4-4-4-4--4---4-4-4-4--4-4-4-4--|--7--9--|-4---4-4-4-4--4---4-4-4-4--4-4-4-4--| 
|-------------------------------------|--5--7--|------------------------------------| 
 
|--------------------------------------------------------------------| 
|--------------------------------------------------------------------| 
|-----------------------------------------------------------------5--| 
|-5h6----------5h6------------------------------------------------5--| 
|-4---4-4-4-4--4---4-4-4-4-4-4--4-6-6/7--7p6-4-3---------4-7--6-4-3--| 
|------------------------------------------------5-4-3--6------------| 
 
Guitar & Synth solo: 
|--------------------------------------------------------------------------------------| 
|---------18-20-15-16--15--------------------------------------------------------------| 
|-17-19-20-----------17--16-17--12-13-10-12--10----------------------------------------| 
|------------------------------------------13--12-13-10-12-9-10--12-10-9---------------| 
|-----------------------------------------------------------------------11-10-8--------| 
|------------------------------------------------------------------------------11-10-7-| 
 
|-----------------------------------------------------------------------------------------------------| 
|-----------------------------------------------------------------------------------------------------| 
|-----------------------------------------------------------------------------------------------------| 
|----------------------11-12-14-12-11-----15-12-11-12--12---------------------------10-13-14-16-14-13-| 
|------------8-10-12-13--------------13-12-----------12----12---------------10-12-14------------------| 
|-8-7-8-10-11--------------------------------------------13----10-9-10-12-13--------------------------| 
 
|----------------------------------------------------------------------------------------------| 
|----------------------------------------------------------------------------------------------| 
|--------------------------------------------------13-14-16-14-13-------17-14-16-17-16-14------| 
|------17-14-13-14--14---------------------12-14-15--------------15-14-------------------18-16-| 
|-15-14-----------14----14---------12-14-15----------------------------------------------------| 
|---------------------15---12-14-15------------------------------------------------------------| 
 
|-----------------------------------------------------------------------| 
|------------------------------------------------19-16-17-19-17-16------| 
|-19-16-17-19-17-16-------21-17-19-21-19-17-----------------------18-16-| 
|------------------19-17-------------------21-19------------------------| 
|-----------------------------------------------------------------------| 
|-----------------------------------------------------------------------| 
 
|--------------------------------------------14----------------------------------------| 
|-20-17-16-17--17--17--17-19-20-19-17-15-14----15-13-15-12-15--15--15-17-18-17-15------| 
|------------17--16--14--------------------------------------14--12--------------17-16-| 
|--------------------------------------------------------------------------------------| 
|--------------------------------------------------------------------------------------| 
|--------------------------------------------------------------------------------------| 
 
|-12------------------------------------------------------------------| 
|---13-12-13-10-13--13--7-10-8-10-7-10-10-10-10-10-10-10--10-7-10-10--| 
|-----------------12------------------9--8--9--8--6------8-------8----| 
|----------------------------------------------------9----------------| 
|---------------------------------------------------------------------| 
|---------------------------------------------------------------------| 
 
 (little slower)............................................................ 
|---------------------------------------------------------------------------| 
|---------------------------------------------------------------------------| 
|-9-9-8-9-11-9-8-11--9-9-8-9-10-9-8-8--9-9-8-9-11-9-11-8--9-9-8-9-11-9-11-8-| 
|---------------------------------------------------------------------------| 
|---------------------------------------------------------------------------| 
|---------------------------------------------------------------------------| 
 
..............................................  
|------------------------------------------------------------------------| 
|------------------------------------------------------------------------| 
|-9-12-14-11-12-9-11-8--9-12-14-11-12--------------------8-9--------8-9--| 
|-------------------------------------9-11-13-----10-9-10----10-9-10-----| 
|------------------------------------------------------------------------| 
|------------------------------------------------------------------------| 
 
|-----------------------------------------------------------------| 
|-----------------------------------------------------------------| 
|------8-9------8-9-------8-9-----8-9------------9-----------9----| 
|-9-8-9----9-8-9-----9-7-9---9-7-9-------------9-----------9------| 
|--------------------------------------10-9-10-----10-9-10--------| 
|-----------------------------------------------------------------| 
 
Tapping part: 
          T        T     T       T            T        T     T       T 
|---------------------------------------------------------------------------| 
|---------------------------------------------------------------------------| 
|-----------12h15h18p15h18p15p12----------------12h15h18p15h18p15p12--------| 
|---------------------------------------------------------------------------| 
|--13h16h19----------------------19p16p13h16h19----------------------19p16--| 
|---------------------------------------------------------------------------| 
 
          T        T     T       T            T        T     T       T 
|---------------------------------------------------------------------------| 
|---------------------------------------------------------------------------| 
|-----------11h14h17p14h17p14p11----------------11h14h17p14h17p14p11--------| 
|---------------------------------------------------------------------------| 
|--12h15h18----------------------18p15p12h15h18----------------------18p15--| 
|---------------------------------------------------------------------------| 
 
          T        T     T       T            T       T     T       T 
|--------------------------------------------------------------------------| 
|--------------------------------------------------------------------------| 
|-----------10h13h16p13h16p13p10----------------9h12h15p12h15p12p9---------| 
|--------------------------------------------------------------------------| 
|--11h14h17----------------------17p14p10h13h16---------------------16p13--| 
|--------------------------------------------------------------------------| 
 
          T        T     T       T            T        T     T       T 
|---------------------------------------------------------------------------| 
|---------------------------------------------------------------------------| 
|-----------14h17h20p17h20p17p14----------------16h19h21p19h21p19p16--------| 
|---------------------------------------------------------------------------| 
|--15h18h21----------------------21p18p17h19h22----------------------22p19--| 
|---------------------------------------------------------------------------| 
 
          T        T     T       T            T        T     T       T 
|---------------------------------------------------------------------------| 
|---------------------------------------------------------------------------| 
|-----------12h15h18p15h18p15p12----------------15h18h21p18h21p18p15--------| 
|---------------------------------------------------------------------------| 
|--13h16h19----------------------19p16-16h19h22----------------------22p19--| 
|---------------------------------------------------------------------------| 
 
          T        T     T       T            T        T     T       T 
|---------------------------------------------------------------------------| 
|---------------------------------------------------------------------------| 
|-----------11h14h16p14h16p14p11----------------11h14h16p14h16p14p11--------| 
|---------------------------------------------------------------------------| 
|--12h14h19----------------------19p14p12h14h19----------------------19p14--| 
|---------------------------------------------------------------------------| 
 
          T        T     T       T            T        T     T       T        
|-------------------------------------------------------------------------------| 
|-------------------------------------------------------------------------------| 
|-----------11h14h16p14h16p14p11----------------11h14h16p14h16p14p11------------| 
|--------------------------------------------------------------------------13ah-| 
|--12h14h18----------------------18p14p12h14h18----------------------18p14------| 
|-------------------------------------------------------------------------------| 
 
 (Decades of greed, plague, famine and war) 
|-----------------------------------------------------| 
|-----------------------------------------------------| 
|*---------------------------------------------------*| 
|*--------------------------------------6-9-8-6------*| 
|--6-6-6--6-6-6-6-6--6-6-6-6-6--6-6-5-8---------9-8-6-| 
|-----------------------------------------------------| 
 
|-----------------------------------------------------------------------------------------------------| 
|-----------------------------------------------------------------------------------------------------| 
|-----------------------------------------------------------------------------------------------------| 
|-----------------------------------------------------------------------------------------------------| 
|--6-6-6--6-6-6-6-6--6-6-4-4-4--4-4-4-4-4--4-4-3-3-3--3-3-3-3-3--3-3-----2-4-6-4-2---4-2-----2--------| 
|--------------------------------------------------------------------4-6-----------6-----6-4---6-4-6--| 
 
Repeat Chorus:(X2) 
 
Repeat intro: (fade out) 
 
Iīf you want me to tab the guitar solo I do it when I feel for it!!! 
 
 

	  

auto scroll beats size up size down change color hide chords drawings
tab show chords e-chords YouTube Clip e-chords hide all tabs e-chords go to top tab

share with facebook

Search Paypal