SYML

home > SYML

Fear Of The Water Tab

SYML

Difficulty: nolevelnolevel

by terr%5Fschmitz

tuner correct add songbook print version text version save to e-mail
chordsukulelecavacokeyboardtabbassdrumsharmonicsflute Guitar Pro
chords

Fear Of The Water

  		Intro 

e|---------------------------------------------------------------------------| 
B|---------------------------------------------------------------------------| 
G|---0-0----0-0----0-0----0-0----3-3----3-3----3-3-------7----2--------------| 
D|---------------------------------------------------------------------------| 
A|---------------------------------------------------------------------------| 
D|-1------1------1------1-----1\5------5------5------5\8----3----------------| 


verse 1 

Some ancient call             That I've answered before 
e|---------------------------------------------------------------------------| 
B|---------------------------------------------------------------------------| 
G|---0-0----0-0----0-0----0-0----3-3----3-3----3-3-----3-3-------------------| 
D|---------------------------------------------------------------------------| 
A|---------------------------------------------------------------------------| 
D|-1------1------1------1-----1\5------5------5------5-----------------------| 

It lives in my walls         And it's under the floor 
e|---------------------------------------------------------------------------| 
B|---------------------------------------------------------------------------| 
G|---0-0----0-0----0-0----0-0----3-3----3-3----3-3-------7----2--------------| 
D|---------------------------------------------------------------------------| 
A|---------------------------------------------------------------------------| 
D|-1------1------1------1-----1\5------5------5------5\8----3----------------| 

If this was meant for me why does it hurt so much?  
e|---------------------------------------------------------------------------| 
B|---------------------------------------------------------------------------| 
G|----8-8----8-8----5-5-----5-5----3-3----3-3----3-3----3-3------------------| 
D|---------------------------------------------------------------------------| 
A|---------------------------------------------------------------------------| 
D|-10------10------7------7------5------5------5------5----------------------| 

And if you're not made for me why did we fall in love?  
e|---------------------------------------------------------------------------| 
B|---------------------------------------------------------------------------| 
G|----8-8----8-8----5-5-----5-5----3-3----3-3----5-3----5-3------------------| 
D|---------------------------------------------------------------------------| 
A|---------------------------------------------------------------------------| 
D|-10------10------7------7------5------5------5------5----------------------| 


verse 2 

A knock at my door             I thought I was alone 
e|---------------------------------------------------------------------------| 
B|---------------------------------------------------------------------------| 
G|---0-0----0-0----0-0----0-0----3-3----3-3----3-3-----3-3-------------------| 
D|---------------------------------------------------------------------------| 
A|---------------------------------------------------------------------------| 
D|-1------1------1------1-----1\5------5------5------5-----------------------| 

Unaware of what I thought I needed     I dropped like a stone 
e|---------------------------------------------------------------------------| 
B|---------------------------------------------------------------------------| 
G|---0-0----0-0----0-0----0-0----3-3----3-3----3-3-------7----2--------------| 
D|---------------------------------------------------------------------------| 
A|---------------------------------------------------------------------------| 
D|-1------1------1------1-----1\5------5------5------5\8----3----------------| 

And if I'm not mistaken then I was the last to know 
e|---------------------------------------------------------------------------| 
B|---------------------------------------------------------------------------| 
G|----8-8----8-8----5-5-----5-5----3-3----3-3----3-3----3-3------------------| 
D|---------------------------------------------------------------------------| 
A|---------------------------------------------------------------------------| 
D|-10------10------7------7------5------5------5------5----------------------| 

And if you'll return for me I'd never want for more 
e|---------------------------------------------------------------------------| 
B|---------------------------------------------------------------------------| 
G|----8-8----8-8----5-5-----5-5----3-3----3-3----5-3----5-3------------------| 
D|---------------------------------------------------------------------------| 
A|---------------------------------------------------------------------------| 
D|-10------10------7------7------5------5------5------5----------------------| 


Chorus 

Get dislocated    Don't be like that     
e|---------------------------------------------------------------------------| 
B|---------------------------------------------------------------------------| 
G|---0-0----0-0----0-0----0-0------------------------------------------------| 
D|---------------------------------------------------------------------------| 
A|---------------------------------------------------------------------------| 
D|-1------1------1------1----------------------------------------------------| 

And you smile when you dive in    Like you're never coming back        
e|---------------------------------------------------------------------------| 
B|---------------------------------------------------------------------------| 
G|----3-3----3-3----3-3------------3-3---------------------------------------| 
D|---------------------------------------------------------------------------| 
A|---------------------------------------------------------------------------| 
E|-1\5-----5------5--------------5-------------------------------------------| 

So hold my body        Yeah hold my breath 
e|---------------------------------------------------------------------------| 
B|---------------------------------------------------------------------------| 
G|---0-0----0-0--------0-0----0-0--------------------------------------------| 
D|---------------------------------------------------------------------------| 
A|---------------------------------------------------------------------------| 
D|-1------1-----------1------1-----------------------------------------------| 

See your face when I blackout        I'm never coming back 
e|---------------------------------------------------------------------------| 
B|---------------------------------------------------------------------------| 
G|----3-3----3-3-----------------------3-3-----7-----2-----------------------| 
D|---------------------------------------------------------------------------| 
A|---------------------------------------------------------------------------| 
E|-1\5-----5-------------------------5-----5\8----3--------------------------| 

Fear                           Of the water                                
e|---------------------------------------------------------------------------| 
B|---------------------------------------------------------------------------| 
G|---0-0----0-0----0-0----0-0----3-3----3-3----3-3-----3-3-------------------| 
D|---------------------------------------------------------------------------| 
A|---------------------------------------------------------------------------| 
D|-1------1------1------1-----1\5------5------5------5-----------------------| 

Fear                            Of the water 
e|---------------------------------------------------------------------------| 
B|---------------------------------------------------------------------------| 
G|---0-0----0-0----0-0----0-0----3-3----3-3----3-3-------7----2--------------| 
D|---------------------------------------------------------------------------| 
A|---------------------------------------------------------------------------| 
D|-1------1------1------1-----1\5------5------5------5\8----3----------------| 


************************************ 

| \  Slide down 

************************************ 
	  

Search Paypal
auto scroll beats size up size down change color hide chords drawings
tab show chords e-chords YouTube Clip e-chords hide all tabs e-chords go to top tab