Survivor

Popular Girl

Survivor

tabs

by  JO_LARA95

save to print version add songbook text version e-mail correct tuner
chordsukulelecavacokeyboardtabbassdrumsharmonicaflute Guitar Pro
close

there isn't a video lesson for this song

chords

Popular Girl

(Survivor)

	  		/=Slide 

Introdução: 
e|--------------------------------------------------------------| 
B|--------------------------------------------------------------| 
G|----------------------------------------------------------8-8-| 
D|-5--7-8--3---------5--7-8-3--3-3---------1--------8-8-7-7-8-8-| 
A|-5--7-8--3--1-0----5--7-8-3--3-3-----0-1---1-0-3--8-8-7-7-6-6-| 
E|-3--5-6--1------1--3--5-6-1--1-1---3--------------6-6-5-5-----| 

Verso: 
e|----------------------------------| 
B|----------------------------------| 
G|----------------------------------| x2 
D|----3-3--8-8--5-5-------3-3--7/8--| 
A|-3--1-1--6-6--3-3--3-3--1-1--5/6--| 
E|-1-----------------1-1------------| 

Pre-Refrão: 
e|-----------------------------------------------------------| 
B|-----------------------------------------------------------| 
G|-----------------------------------------------------------| 
D|-3-3-3-3-3-3-3-3-5-5-5-5-5-5-5-5-8-8-8-8-8-8-8-8--3-3--3-3-| 
A|-3-3-3-3-3-3-3-3-5-5-5-5-5-5-5-5-8-8-8-8-8-8-8-8--3-3--3-3-| 
E|-1-1-1-1-1-1-1-1-3-3-3-3-3-3-3-3-6-6-6-6-6-6-6-6--1-1--1-1-| 

Refrão: 
e|----------------------------------------------------------| 
B|----------------------------------------------------------| 
G|----------------------------------------------------------| 
D|-5--7-8--3---------5--7-8-3--3-3---------1--------8-8-7-7-| 
A|-5--7-8--3--1-0----5--7-8-3--3-3-----0-1---1-0-3--8-8-7-7-| 
E|-3--5-6--1------1--3--5-6-1--1-1---3--------------6-6-5-5-| 

e|-------------------------| 
B|-------------------------| 
G|-8-------------8---------| 
D|-8--8--3--3-3--8--8--3-3-| 
A|-6--8--3--3-3--6--8--3-3-| 
E|----6--1--1-1-----6--1-1-| 

Verso 
Pre-Refrão 
Refrão 

Ponte: 
e|--------------------------------------------------------------------------| 
B|--------------------------------------------------------------------------| 
G|-3---3--5---5--7---3---3---5---5--7---2---2--3---3--5---2---2--3---3--2---| 
D|---5------5------5---5---5---5------5---3------3------3---3------3------3-| 
A|--------------------------------------------------------------------------| 
E|--------------------------------------------------------------------------| 

e|--------------------------------------------------------------------------| 
B|--------------------------------------------------------------------------| 
G|-3---3--5---5--7---3---3---5---5--7---2---2--3---3--5---5-----7---7-------| 
D|---5------5------5---5---5---5------5---3------3------5---5-----7---7-----| 
A|--------------------------------------------------------------------------| 
E|--------------------------------------------------------------------------| 

Verso 
Pre-Refrão 
Refrão 
Fim 
		  

See also:

tabs Tenacious D - Rock Your Socks Off (ver. 1) tabs Avenged Sevenfold - Beast And The Harlot tabs Tenacious D - Wonderboy (ver. 2) tabs Tenacious D - Wonderboy (ver. 1) tabs Mario - Mario tabs Tenacious D - Explosivo
e-chords

Other versions:

tabs Survivor - Popular Girl
auto scroll beats size up size down change color hide chords drawings
tab show chords e-chords YouTube Clip e-chords hide all tabs e-chords go to top tab

share