Surfer Blood

home > Surfer Blood

Say Yes To Me Tab

Surfer Blood

Difficulty: nolevelnolevel

by tamamoreira

tuner correct add songbook print version text version save to e-mail
chordsukulelecavacokeyboardtabbassdrumsharmonicsflute Guitar Pro
chords

Say Yes To Me

  		
Tuning: standard 

Intro 
e|-----6----------------------------------------------------------------------| 
B|-----6----6--8----6-------6-------------------------------------------------| 
G|-----7---------7------7-----------------------------------------------------| 
D|-----8----------------------7--8--------------------------------------------| 
A|-----8----------------------------------------------------------------------| 
E|-----6----------------------------------------------------------------------| 

Verse/Chourus 
e|----6-----3----5---8---------------6----3----5----8----6--------------------| 
B|----6-----3----6---10--------------6----3----6----10---8--------------------| 
G|----7-----3----7---10--------------7----3----7----10---8--------------------| 
D|----8-----5----7---10--------------8----5----7----10---8--------------------| 
A|----8-----5----5---8---------------8----5----5----8----6--------------------| 
E|----6-----3----x---x---------------6----3----x----x----x--------------------| 


Chorus Lead Guitar 
e|----------------------------------------------------------------------------| 
B|---11~~--------10~~---------------------------------------------------------| 
G|---10~~--------10~~---------------------------------------------------------| 
D|----------------------------------------------------------------------------| 
A|----------------------------------------------------------------------------| 
E|----------------------------------------------------------------------------| 


Bridge 
e|----3---3----------3----5---3---------------------------------------------------| 
B|----5---3----------5----6---3---------------------------------------------------| 
G|----6---3----------6----7---3---------------------------------------------------| 
D|----6---5----------6----7---5---------------------------------------------------| 
A|----3---5----------3----5---5---------------------------------------------------| 
E|----x---3----------x----x---3---------------------------------------------------| 




************************************ 

| /   slide up 
| \   slide down 
| h   hammer-on 
| p   pull-off 
| ~   vibrato 
| +   harmonic 
| x   Mute note 
| b   Bend 
| pb  Pre-bend 
| br  Bend release 
| pbr Pre-bend release 
| brb Bend release bend 

************************************ 
	  

Search Paypal
auto scroll beats size up size down change color hide chords drawings
tab show chords e-chords YouTube Clip e-chords hide all tabs e-chords go to top tab