Superbus

Butterfly

Superbus

tabs

by  ADALGOMES

save to print version add songbook text version e-mail correct tuner
chordsukulelecavacokeyboardtabbassdrumsharmonicaflute Guitar Pro
close

there isn't a video lesson for this song

chords

Butterfly

	  		

Intro 

Guitar 1 
                                       x2 
e|---------------------------------------| 
B|---------------------------------------| 
G|-----------77777777--------------------| 
D|--77777777-77777777-55555555-77777777--| 
A|--77777777-55555555-55555555-77777777--| 
E|--55555555----------33333333-55555555--| 

Guitar 2 
                    x4 
e|--------------------| 
B|--5-----5--6-----6--| 
G|--5-5-5----7---7----| 
D|-----------7-7------| 
A|--------------------| 
E|--------------------| 

Verse 

Guitar 1 
                                       x2 
e|---------------------------------------| 
B|---------------------------------------| 
G|-----------77777777--------------------| 
D|--77777777-77777777-55555555-77777777--| 
A|--77777777-55555555-55555555-77777777--| 
E|--55555555----------33333333-55555555--| 

Guitar 2 
                    x4 
e|--------------------| 
B|--5-----5--6-----6--| 
G|--5-5-5----7---7----| 
D|-----------7-7------| 
A|--------------------| 
E|--------------------| 

Chorus 

Guitar 1 
                                       x2 
e|---------------------------------------| 
B|---------------------------------------| 
G|---------------------------------------| 
D|--33333333-55555555-77777777-55555555--| 
A|--33333333-55555555-77777777-55555555--| 
E|--11111111-33333333-55555555-33333333--| 

Guitar 2 

e|--8----8--10----10--12----12--10----10-----------------15-13-12/--| 
B|--9--9----11-11-----13-13-----11-11-----13-12-10-8--12------------| 
G|--10------12--------14--------12----------------------------------| 
D|----------12------------------12----------------------------------| 
A|------------------------------------------------------------------| 
E|------------------------------------------------------------------| 

Post-Chorus 

Guitar 1 
                                       x2 
e|---------------------------------------| 
B|---------------------------------------| 
G|-----------77777777--------------------| 
D|--77777777-77777777-55555555-77777777--| 
A|--77777777-55555555-55555555-77777777--| 
E|--55555555----------33333333-55555555--| 

Guitar 2 
                    x4 
e|--------------------| 
B|--5-----5--6-----6--| 
G|--5-5-5----7---7----| 
D|-----------7-7------| 
A|--------------------| 
E|--------------------| 

Verse 

Guitar 1 
                                       x2 
e|---------------------------------------| 
B|---------------------------------------| 
G|-----------77777777--------------------| 
D|--77777777-77777777-55555555-77777777--| 
A|--77777777-55555555-55555555-77777777--| 
E|--55555555----------33333333-55555555--| 

Guitar 2 
                    x4 
e|--------------------| 
B|--5-----5--6-----6--| 
G|--5-5-5----7---7----| 
D|-----------7-7------| 
A|--------------------| 
E|--------------------| 

Chorus 

Guitar 1 
                                       x4 
e|---------------------------------------| 
B|---------------------------------------| 
G|---------------------------------------| 
D|--33333333-55555555-77777777-55555555--| 
A|--33333333-55555555-77777777-55555555--| 
E|--11111111-33333333-55555555-33333333--| 

Guitar 2 

e|--8----8--10----10--12----12--10----10-----------------15-13-12/--| 
B|--9--9----11-11-----13-13-----11-11-----13-12-10-8--12------------| 
G|--10------12--------14--------12----------------------------------| 
D|----------12------------------12----------------------------------| 
A|------------------------------------------------------------------| 
E|------------------------------------------------------------------| 

Bridge 

Guitar 1 
                  x2 
e|--0~--5~--3~--0~--| 
B|--1~--6~--3~--1~--| 
G|--2~--7~--4~--2~--| 
D|--2~--7~--5~--2~--| 
A|--0~--5~--5-------| 
E|----------3-------| 

Guitar 2 
                  x2 
e|--0~--1~--7~--0~--| 
B|--1~--3~--8~--1~--| 
G|--2~--2~--7~--2~--| 
D|------0~----------| 
A|------------------| 
E|------------------| 

                       x4 
e|------7------5---------|--15-13-12/--| 
B|----5------5--------8--|-------------| 
G|--5------5--------7----|-------------| 
D|----------------7------|-------------| 
A|-----------------------|-------------| 
E|-----------------------|-------------| 

Chorus 

Guitar 1 
                                       x4 
e|---------------------------------------| 
B|---------------------------------------| 
G|---------------------------------------| 
D|--33333333-55555555-77777777-55555555--| 
A|--33333333-55555555-77777777-55555555--| 
E|--11111111-33333333-55555555-33333333--| 

Guitar 2 

e|--8----8--10----10--12----12--10----10-----------------15-13-12/--| 
B|--9--9----11-11-----13-13-----11-11-----13-12-10-8--12------------| 
G|--10------12--------14--------12----------------------------------| 
D|----------12------------------12----------------------------------| 
A|------------------------------------------------------------------| 
E|------------------------------------------------------------------| 

Outro 

Guitar 1 
                                       x2 
e|---------------------------------------| 
B|---------------------------------------| 
G|-----------77777777--------------------| 
D|--77777777-77777777-55555555-77777777--| 
A|--77777777-55555555-55555555-77777777--| 
E|--55555555----------33333333-55555555--| 

Guitar 2 
                    x4 
e|--------------------|------| 
B|--5-----5--6-----6--|--5~--| 
G|--5-5-5----7---7----|--5~--| 
D|-----------7-7------|------| 
A|--------------------|------| 
E|--------------------|------| 
		  

See also:

tabs Papas da Língua - No Calor da Hora tabs Frejat - Segredos tabs Roupa Nova - Seguindo no Trem Azul (solo) tabs Pholhas - Reflections of my life tabs Biquini Cavadão - Me Chama tabs Roupa Nova - Whisky A Go-Go (solo final)
e-chords

Other versions:

tabs Candlebox - Butterfly tabs Crazy Town - Butterfly tabs Mick Hart - Butterfly tabs Superbus - Butterfly tabs Weezer - Butterfly (ver. 2) tabs Benjamin Francis Leftwich - Butterfly Culture
auto scroll beats size up size down change color hide chords drawings
tab show chords e-chords YouTube Clip e-chords hide all tabs e-chords go to top tab

share