Sunny Day Real Estate

In Circles

Sunny Day Real Estate

tabs Advanced advanced

save to print version add songbook text version e-mail correct tuner
chordsukulelecavacokeyboardtabbassdrumsharmonicaflute Guitar Pro
close

there isn't a video lesson for this song

chords

In Circles

	  		 
D tuning (D G C F A D) 
 
Note: I'm 100% sure that this is the correct tuning and 95% sure 
that these are the correct voicings for these notes (both 
because of the video bootleg I have of the 12/3/94 Kansas 
concert). 
 
*Intro 
 
G  (right channel) 
 
|-7---7---7---7---7---7---7---7---7---7---7---7---7------------- 
|---8---8---8---8---8---8---8---8---8---8---8---8---8-...------- 
|--------------------------------------------------------------- 
|--------------------------------------------------------------- 
|--------------------------------------------------------------- 
|--------------------------------------------------------------- 
 
*1 (pre-verse) 
 
G  (right channel) 
 
|-7---7---7---7---7---7---7---7---7---7---7---7---7-------7---7 
|---8---8---8---8---8---8---8---8---8---8---8---8---8-...---8-8 
|--------------------------------------------------------------- 
|--------------------------------------------------------------- 
|--------------------------------------------------------------- 
|--------------------------------------------------------------- 
 
G2 (left channel) 
 
|-0--0--0-0-0-0-----3--3--3-3-3-----------------------0--0--0-0-0-0-0-0- 
|-0--0--0-0-0-0-----3--3--3-3-3-----------------------0--0--0-0-0-0-0-0- 
|-9--9--9-9-9-9-----4--4--4-4-4-----------------------9--9--9-9-9-9-9-9- 
|-9--9--9-9-9-9-----5--5--5-5-5-----------------------9--9--9-9-9-9-9-9- 
|-7--7--7-7-7-7-----5--5--5-5-5--------------17-------7--7--7-7-7-7-7-7- 
|-0--0--0-0-0-0-...-3--3--3-3-3--14-15p14-15----15h14-0--0--0-0-0-0-0-0... 
^repeat 
 
*2 (verse) 
 
G  Clean 
 
|---2----2------2---3---------3----3---3---------2---2-----2---3 
|-----3------3----3---3--(3)-----3---3---3---3-----3-----3------ 
|-0--------0------------0------------------0---0-------0-----0-- 
|--------------------------------------------------------------- 
|--------------------------------------------------------------- 
|--------------------------------------------------------------- 
^something ^repeat 
like this... 
G2 Clean 
 
|-0--------0--------3--------------------------0---------0------ 
|-0--------3--------3--------------------------0---------3------ 
|-0--------0--------0--------------------------0---------0------ 
|-2--------2--------0--------------------------2---------2------ 
|-2--------3--------2--------------------------2---------3------ 
|-0-----------------3--------------------------0---------------- 
^multiple strums with the rhythm (which I'm ^repeat  
too lazy to tab) 
 
G  -last time, before chorus 
 
 
|---2---2------2----3-----|--7---7---7---7--(7)------------------ 
|-----3-----3-----3---3---|----8---8---8---8--------------------- 
|-0-------0-------------0-|-------------------------------------- 
|-------------------------|-------------------------------------- 
|-------------------------|-------------------------------------- 
|-------------------------|-------------------------------------- 
^distortion 
*3 (chorus) 
 
G  Distortion 
 
|---------------------------3--3-3---------------------------------- 
|---------------------------3--3-3---------------------------------- 
|---------------------------4--4-4---------------------------------- 
|-2--2--2-2-----------------5--5-5--------------------2--2--2-2----- 
|-2--2--2-2-3p2---3p2---3p2-5--5-5----3p2---3p2---3p2-2--2--2-2-3p2- 
|-0--0--0-0-----3-----3-----3--3-3--------3-----3-----0--0--0-0----- 
^repeat 
G2 Distortion 
 
|-0--0--0-0-0-0-0-0-0-0-0-0-3--3-3----3-3-3-3-3-3-3-3-0--0--0-0-0-0- 
|-0--0--0-0-1-1-1-1-1-1-1-1-3--3-3----3-3-3-3-3-3-3-3-0--0--0-0-1-1- 
|-0--0--0-0-0-0-0-0-0-0-0-0-0--0-0----0-0-0-0-0-0-0-0-0--0--0-0-0-0- 
|-2--2--2-2-2-2-2-2-2-2-2-2-0--0-0----0-0-0-0-0-0-0-0-2--2--2-2-2-2- 
|-2--2--2-2-3-3-3-3-3-3-3-3-2--2-2----2-2-2-2-2-2-2-2-2--2--2-2-3-3- 
|-0--0--0-0-----------------3--3-3----3-3-3-3-3-3-3-3-0--0--0-0----- 
^repeat 
repeat *2 
 
repeat *3 
 
*4 
 
G  
 
|---------------------------------------------------------------------- 
|---------------------------------------------------------------------- 
|-7-7-7-7-7----11-11-11-11-11----12-12-12-12-12--12-12----------------- 
|-X-X-X-X-X----X--X--X--X--X-----X--X--X--X--X---X--X------------------ 
|-5-5-5-5-5----9--9--9--9--9-----10-10-10-10-10--10-10-3p2---3p2---3p2- 
|----------------------------------------------------------3-----3----- 
repeat^ 
G2 
 
|---------------------------------------------------------------------- 
|---------------------------------------------------------------------- 
|-7-7-7-7-7----11-11-11-11-11----12-12-12-12-12--12-12-1414141414141414 
|-X-X-X-X-X----X--X--X--X--X-----X--X--X--X--X---X--X--X-X-X-X-X-X-X-X- 
|-5-5-5-5-5----9--9--9--9--9-----10-10-10-10-10--10-10-1212121212121212 
|---------------------------------------------------------------------- 
 
*5 (solo) 
 
G  
 
|-10-10-10-10-10--10/12-8-8-8-8-8--8/10-7-7-7-7-7------------------ 
|------------------------------------------------------------------- 
|------------------------------------------------------------------- 
|------------------------------------------------------------------- 
|---------------------------------------------------3p2---3p2---3p2- 
|-------------------------------------------------------3-----3----- 
 
|-10-10-10-10-10--10/12-8-8-8-8-8--8/10-7-7-7-7-7------------------ 
|------------------------------------------------------------------- 
|------------------------------------------------------------------- 
|------------------------------------------------------------------- 
|---------------------------------------------------3p2---3p2---3p2- 
|-------------------------------------------------------3-----3----- 
 
|--------------------------------------------------------------- 
|--------------------------------------------------------------- 
|--------------------------------------------------------------- 
|----------------4-4-4-4-4--4-4-5-5-5-5-5--5-5------------------ 
|-5-5-5-5-5--5-5-------------------------------3p2---3p2---3p2-- 
|--------------------------------------------------3-----3------ 
 
|--------------------------------------------------------------- 
|--------------------------------------------------------------- 
|--------------------------------------------------------------- 
|----------------4-4-4-4-4--4-4-5-5-5-5-5--5-5------------------ 
|-5-5-5-5-5--5-5-------------------------------3p2---3p2---3p2-- 
|--------------------------------------------------3-----3------ 
 
G2 
 
|--------------------------------------------------------------- 
|--------------------------------------------------------------- 
|-7-7-7-7-7--7-7-5-5-5-5-5--5-5-4-4-4-4-4--4-4------------------ 
|-7-7-7-7-7--7-7-5-5-5-5-5--5-5-4-4-4-4-4--4-4------------------ 
|-5-5-5-5-5--5-5-3-3-3-3-3--3-3-2-2-2-2-2--2-2-3p2---3p2---3p2-- 
|--------------------------------------------------3-----3------ 
^repeat 
*Interlude 
 
G  
 
|--------------------------------------------------------------- 
|--------------------------------------------------------------- 
|-/9----5----------/9----5----/12----14-14-14-14-14-14-14-14-- 
|-------------h5-----------------------X--X--X--X--X--X--X--X--- 
|-/7----3----------/7----3----/10----12-12-12-12-12-12-12-12-- 
|-------------h3------------------------------------------------ 
 
G2 (really low volume, thick, mid-tone heavy distortion) 
 
|-0-0-0-0-0-0-3-3-3--------------------------------------------- 
|-0-0-0-1-1-1-3-3-3--------------------------------------------- 
|-0-0-0-0-0-0-0-0-0--------------------------------------------- 
|-2-2-2-2-2-2-0-0-0--------------------------------------------- 
|-2-2-2-3-3-3-2-2-2--------------------------------------------- 
|-0-0-0-------3-3-3--------------------------------------------- 
^repeat 
 
repeat *3 
 
End on Dm |022000| 
 
There, my first SDRE tab in D tuning. Please send all corrections, 
etc...to the address at the top. 
 
 
 
-------------------------------------------------------------------------------- 
 
In Circles (bass tab) 
by Sunny Day Real Estate 
Tabbed by John D West 
Courtesy of Treeclimbers Inc  
from the album Diary  
 
played in drop-D tuning (D-A-D-G)  
 
Intro  
last one replace second half with  
G |------------------------------------------------------|---------------------------------------  
| /H /H /H /H | /H  
D |--------0--5--2-3----0-2-3--------0--5--2-3----0-2-3--|-------0--5--2-3--3-2-0----------------  
| |  
A |------------------1-------------------------1---------|------------------------3--------------  
| |  
D |--0--0----------------------3--3----------------------|-3--3----------------------------------  
 
 
On the verses, i am not completely sure what Nate plays. But the root notes are A, A#, and F.  
I usually just ad lib something like this...  
 
G |----------------------------------------------------------------------------------------------  
|  
D |----------------------------------------------------------------------------------------------  
| /H /H  
A |--0--0--0-0-1-1--1-3-1-0----------------------------------------------------------------------  
| /H /H  
D |--------------------------3--3--3-5--3--2-2-3-2-5---------------------------------------------  
 
Basically i work around that. Change it up from line to line, etc.  
 
 
Chorus  
this part first two times  
G |----------------------------------------------------------------------------------------------  
|  
D |----------------------------------------------------------------------------------------------  
| /P /P /P /P /P /P  
A |-----------1-0---1-0---1-0----------1-0---1-0---1-0-------------------------------------------  
|  
D |--0--0--0------3-----3-----3--3--3------3-----3-----------------------------------------------  
 
this part second two times at end, replace 2nd half with  
G |-------------------------------------------------------------|--------------------------------  
| |  
D |-------------------------------------------------------------|--------------------------------  
| /P /P /P /P /P /P |  
A |----------------1-0---1-0---1-0--------------1-0---1-0---1-0-|----------1-0---1-0---1-0-------  
| |  
D |--0-0-0-0-0--0------3-----3-----3-3-3-3-3--3-----3-----3-----|-3--3--3------3-----3-----------  
 
 
Bridge  
first two times  
G |----------------------------------------------------------------------------------------------  
|  
D |----------------------------------------------------------------------------------------------  
| /P /P /P  
A |--3-3-3-3-3----1-1-1-1-1----0-0-0-0-0--0-0--1-0---1-0---1-0-----------------------------------  
|  
D |------------------------------------------------3-----3---------------------------------------  
 
 
other four times  
G |----------------------------------------------------------------------------------------------  
| /H  
D |------------------------------------------5-7-------------------------------------------------  
| /P /P /P  
A |--3-3-3-3-3-3-3-3-1-1-1-1-1-1-1-1-0-0-0-0-----0-0--1-0---1-0---1-0----------------------------  
|  
D |-------------------------------------------------------3-----3--------------------------------  
 
 
Other Part (where it all kinda chills out for a bit)  
 
"in.....cir......cles................in..........cir.....cles..........i....goooo...."  
G |----------------------------------------------------------------------------------------------  
|  
D |----------------------------------------------------------------------------------------------  
| /H  
A |-------------------------------------------------12-13------5---------------------------------  
| /sl  
D |--0---------------------------------------------------------------------------------12--------  
 
 
Ends on open low D. 
 
_______________________________________________________ 
Contribuição: Rafael Ortiz P. Silva([email protected]) 

		  

Full key step upFull key step up
Half key step upHalf key step up
Half key step downHalf key step down
Full key step downFull key step down
hide glossary

See also:

tabs Bon Jovi - It's My Life tabs Kiss - Forever tabs Aerosmith - Dream On tabs Foo Fighters - Everlong (acústico) tabs The Doors - People Are Strange tabs The Offspring - All I Want
e-chords

Other versions:

tabs Sunny Day Real Estate - In Circles
auto scroll beats size up size down change color hide chords drawings
tab show chords e-chords YouTube Clip e-chords hide all tabs e-chords go to top tab

share