Sunny Day Real Estate

Every shining time you arrive

Sunny Day Real Estate

tabs Expert expert

save to print version add songbook text version e-mail correct tuner
chordsukulelecavacokeyboardtabbassdrumsharmonicaflute Guitar Pro
close

there isn't a video lesson for this song

chords

Every shining time you arrive

	  		 
intro chords: Dan's lead when the band comes in: 
 
 
Cadd2 Em 
 
e---0--------0------ -0---7--0-0--0--2--0-0--0-5-0--3------ 
b---3--------0------ ---------------------------------------- 
g---0--------0------ ---------------------------------------- 
d---2--------2------ ---------------------------------------- 
a---3--------2------ ---------------------------------------- 
e------------0------ ---------------------------------------- 
 
 
chorus lead at the chorus: 
 
G F# 
e----3-------2-------- ----------------------------- 
b----3-------3-------- ---8-8------7-----(7)-------- 
g----0-------0-------- ----------------------------- 
d----0-------0-------- ----------------------------- 
a----2---------------- ----------------------------- 
e----3-------2-------- ----------------------------- 
 
 
Bridge chords: G D e minor 
 
 
"from the depths of my gloom" 
 
e--0----0----------------0--- 
b--3----5----------------0--- 
g--0----0---repeat-then--0--- then go to intro chords until the end 
d--2----4----------------2--- 
a--3----5----------------2--- 
e------------------------0--- 
 
 
=================================================================== 
versão 2 
 
In the intro chords to every shining time you arrive. 
The second chord is this: 
 
 
e.......0 
 
b.......0 
 
g.......0 
 
d.......2 
 
a.......0 
 
e.......3 
 
 
========================================================= 
versão 3 
 
 
E 0 
 
B 0 
 
G 4 
 
D 2 
 
A 0 
 
E X 
 
 
or 
 
 
E 0 
 
B 0 
 
G 2 
 
D 2 
 
A 0 
 
E X  
 
 
====================================================================== 
versão 4 
 
intro: 
 
|-0-------0---------- 
|-3-------0---------- 
|-0-------0---------- 
|-2-------2---------- 
|-3-------0---------- 
|--------------------- 
 
 
lead (intro progression keeps playing) 
 
 
|-0------0------0---------0---------0----------0----------- 
|----------------------------------------------------------repeat once more 
|---16------9-------11--------9--------14---------12---- 
 
 
I know there's an easier way to do this. 
But this is how dan does it in 
concert and it sounds more like the real version... 
 
 
chorus: 
 
|-3-------2-------0------- 
|-3-------2-------3------- 
|-0-------0-------0------- 
|-0-------0-------0------- 
|-2-------0-------3------- 
|-3-------2-------2------- 
 
 
dans lead 
 
|-------------------------- 
|-8-----------7----------- 
|----12-------------11--- 
 
 
bridge right before breakdown 
 
 
|-0----3---3------------------ 
|-0----3---3------------------ 
|-0----0---0------------------ 
|-2----0---0------------------ 
|-2----2---0------------------ 
|-0----3---2------------------ 
 
_______________________________________________________ 
Contribuição: Rafael Ortiz P. Silva([email protected]) 

		  

Full key step upFull key step up
Half key step upHalf key step up
Half key step downHalf key step down
Full key step downFull key step down
hide glossary

See also:

tabs Bon Jovi - It's My Life tabs Kiss - Forever tabs Aerosmith - Dream On tabs Foo Fighters - Everlong (acústico) tabs The Doors - People Are Strange tabs The Offspring - All I Want
e-chords

Other versions:

tabs Sunny Day Real Estate - Every shining time you arrive
auto scroll beats size up size down change color hide chords drawings
tab show chords e-chords YouTube Clip e-chords hide all tabs e-chords go to top tab

share