Sunidhi Chauhan

home > Sunidhi Chauhan

Kaisi Paheli Zindgani Tab

Sunidhi Chauhan

Difficulty: ExpertExpert

by reeteshr

tuner correct add songbook print version text version save to e-mail
chordsukulelecavacokeyboardtabbassdrumsharmonicsflute Guitar Pro
chords

Kaisi Paheli Zindgani

  		 
NOTES: 
Bass is the thing for this Indian jazz song and there 
are a number of improvizations done by the bassist, 
especially when the Cm F bridge comes. This tab excludes 
the last verse and Chorus part. I'll include them soon. 
 
 
  G |--------|--------|--------|--------|--------|--------|--------|-------- 
  D |8------8|--------|10----10|--------|8------8|--------|10----10|-------- 
  A |--------|10----10|--------|8------8|--------|10----10|--------|8------8 
  E |--------|--------|--------|--------|--------|--------|--------|-------- 
 
 
  G |----------------|----------------|----------------|---------------- 
  D |8-------------8-|----------------|8-------------8-|---------------- 
  A |----------------|8-------------8-|----------------|8-------------8- 
  E |----------------|----------------|----------------|---------------- 
     nayee         na hee.N nayee  ye  baate.N      ye  baate.N hai.N pu 
 
  G |--------------12|----------------|--------------12|---------------- 
  D |----------------|10------------10|----------------|10------------10 
  A |----------------|----------------|----------------|---------------- 
  E |8---------------|----------------|8---------------|---------------- 
     raanee 
 
  G |----------------|----------------|----------------|---------------- 
  D |----------------|10------------10|----------------|10-------------- 
  A |8-------------8-|----------------|8-------------8-|--------------8- 
  E |----------------|----------------|----------------|---------------- 
     kaisee       pa  heleee  hai  ye  kaisee       pa  helee     zinda 
 
  G |----------------|----------------|----------------|---------------- 
  D |--------5-------|3---------------|----------------|5-------3------- 
  A |----------------|--------5-------|--------5-------|---------------- 
  E |6---------------|----------------|6---------------|---------------- 
     gaanee 
 
  G |----------------|----------------|----------------|---------------- 
  D |8-------------8-|----------------|8-------------8-|---------------- 
  A |----------------|8-------------8-|----------------|8-------------8- 
  E |----------------|----------------|----------------|---------------- 
     thaamaa    haa.N rokaa   isko     kisne     haa.N  ye to bahtaa 
 
  G |--------------12|----------------|--------------12|---------------- 
  D |----------------|10------------10|----------------|10------------10 
  A |----------------|----------------|----------------|---------------- 
  E |8---------------|----------------|8---------------|---------------- 
     paanee 
 
  G |----------------|----------------|----------------|---------------- 
  D |----------------|10------------10|----------------|10-------------- 
  A |8-------------8-|----------------|8-------------8-|--------------8- 
  E |----------------|----------------|----------------|---------------- 
     kaisee       pa  heleee  hai  ye  kaisee       pa  helee     zinda 
 
  G |----------------|----------------|----------------|---------------- 
  D |--------5-------|3---------------|----------------|5--------------- 
  A |----------------|--------5-------|--------5-------|--------8------- 
  E |6---------------|----------------|6---------------|---------------- 
     gaanee                                    laa      laa     laa 
 
  G |----------------|----------------|----------------|---------------- 
  D |----------------|----------------|----------------|---------------- 
  A |----------------|8-------------8-|----------------|8-------------8- 
  E |6-------------6-|----------------|6-------------6-|---------------- 
     laa                                       laa      laa     laa 
 
  G |----------------|----------------|----------------|---------------- 
  D |----------------|----------------|----------------|---------------- 
  A |--------------10|----------------|--------------10|---------------- 
  E |8---------------|8-------10------|11--------------|8-------------8- 
     laa                                       zooo     zooo    zooo 
 
  G |----------------|----------------|----------------|---------------- 
  D |----------------|----------------|----------------|---------------- 
  A |8-------------8-|----------------|8-------------8-|--------8------- 
  E |----------------|8-------------8-|----------------|8--------------- 
     zooo                                      zooo     zooo  zooo  zooo 
 
  G |----------------|----------------|----------------|---------------- 
  D |--------5-------|3---------------|----------------|5--------------- 
  A |----------------|--------5-------|--------5-------|--------8------- 
  E |6---------------|----------------|6---------------|---------------- 
     zooo                                      pee      le      i 
 
  G |----------------|----------------|----------------|---------------- 
  D |----------------|----------------|----------------|---------------- 
  A |----------------|8-------------8-|----------------|8-------10------ 
  E |6-------------6-|----------------|6-------------6-|---------------- 
     se                                        is       me.N    na 
 
  G |----------------|----------------|----------------|---------------- 
  D |----------------|----------------|----------------|---------------- 
  A |--------------10|----------------|--------------10|---------------- 
  E |8---------------|8-------8-------|11--------------|8-------10------ 
     shaa                                      jis      ne      pi 
 
  G |----------------|----------------|----------------|---------------- 
  D |----------------|--------------10|----------------|10-------------- 
  A |8-------------8-|8---------------|8-------------8-|--------------8- 
  E |----------------|----------------|----------------|---------------- 
     yaa                                            wo  g.am me.N bhee ha.N 
 
  G |----------------|----------------|----------------|---------------- 
  D |--------5-------|3---------------|8-------------8-|---------------- 
  A |----------------|--------5-------|----------------|8-------------8- 
  E |6---------------|----------------|----------------|---------------- 
     saa                               pal me.N    ha.N saaye      aur 
 
  G |----------------|----------------|--------------12|---------------- 
  D |8-------------8-|----------------|----------------|10-------------- 
  A |----------------|8-------------8-|----------------|---------------- 
  E |----------------|----------------|8---------------|--------------8- 
     pal me.N     ru  laaye  ye    ka  haanee 
 
  G |--------------12|----------------|----------------|---------------- 
  D |10--------------|10------------10|--------------10|---------------- 
  A |----------------|----------------|8---------------|8--------------- 
  E |----------------|----------------|----------------|--------------8- 
                                       kaisee       pa  helee  hai ye 
 
  G |----------------|----------------|----------------|---------------- 
  D |----------------|10--------------|--------5-------|3--------------- 
  A |8-------------8-|--------------8-|----------------|--------5------- 
  E |----------------|----------------|6---------------|---------------- 
     kaisee       pa  helee     zinda  gaanee 
 
  G |----------------|----------------|----------------|---------------- 
  D |----------------|3-------5-------|8-------------8-|---------------- 
  A |--------5-------|----------------|----------------|8-------------8- 
  E |6---------------|----------------|----------------|---------------- 
                                       thaamaa    haa.N rokaa   isko 
 
  G |----------------|----------------|--------------12|---------------- 
  D |8-------------8-|----------------|----------------|10-------------- 
  A |----------------|8-------------8-|----------------|---------------- 
  E |----------------|----------------|8---------------|--------------8- 
     kisne     haa.N  ye to bahtaa     paanee 
 
  G |--------------12|----------------|----------------|---------------- 
  D |10--------------|10------------10|--------------10|---------------- 
  A |----------------|----------------|8---------------|8--------------- 
  E |----------------|----------------|----------------|--------------8- 
                                       kaisee       pa  helee  hai ye 
 
  G |----------------|----------------|----------------|---------------- 
  D |----------------|10--------------|----------------|---------------- 
  A |8-------------8-|--------------8-|----------------|---------------- 
  E |----------------|----------------|6---------------|---------------- 
     kaisee       pa  helee     zinda  gaanee 
 
 
*** For Site Staff *** 
 
If you don't get this song, please let me know. I'll send 
you the mp3. 
 
Also check these search results: 
http://www.google.co.in/search?hl=en&q=Kaisi+Paheli+Zindagani+Parineeta+song&meta= 
 
*** *** 

	  

Full key step upFull key step up
Half key step upHalf key step up
Half key step downHalf key step down
Full key step downFull key step down
Search Paypal
auto scroll beats size up size down change color hide chords drawings
tab show chords e-chords YouTube Clip e-chords hide all tabs e-chords go to top tab