Sungha Jung

Pirates Of The Caribbean Tab

Sungha Jung

Difficulty: ExpertExpert

by jov%2Dcorrea

tuner correct add songbook print version text version save to e-mail
chordsukulelecavacokeyboardtabbassdrumsharmonicsflute Guitar Pro
close

there isn't a video lesson for this song

chords

Pirates Of The Caribbean

  		

Intro) 


------------------------------------------ 
------------------------------------------ 
------------------------------------------ 
-0--0-0-0-0--0--0-0-0-0--0--0-0-0-0--0--0- 
------------------------------------------ 
------------------------------------------ 


Parte 1) 


 Dm            Bb        C 
-------------0-1-1---1-3-0-0-------------- 
---1-3-3---3---3-3-------1-1---3-1-1h3---- 
-2---2-2-------3-3-------0-0-------0h2---- 
-----0---0-------------------------0--0-0- 
---------------1---1-----3---3------------ 
------------------------------------------ 


Parte 2) 


 Dm            F         C 
-------------0-1-1---1-3-0-0-------------- 
---1-3-3---3---1-1-------1-1---3-1-1h3---- 
-2---2-2-------2-2-------0-0-------0h2---- 
-----0---0-------------------------0--0-0- 
-------------------------3---3------------ 
---------------3---3---------------------- 


Parte 3) 


 Dm            Gm 
-------------1-3-3---3-5-6-6---5-3-5------ 
---1-3-3---3---3-3-------------------3---- 
-2---2-2-------3-3-------------------2---- 
-----0---0-------------------------0---0-- 
-------------------------0---0------------ 
---------------5---5---------------------- 


Parte 4) 

                       A 
---0-1-1---3-5-------1-0-0-1-0------------ 
-3-------------3---3---2-----2------------ 
-----------------------2-----2------------ 
-----------------------2-----2------------ 
-----1---1---0---0-----0-----0------------ 
------------------------------------------ 




Parte 1) 


 Dm            Bb        C 
-------------0-1-1---1-3-0-0-------------- 
---1-3-3---3---3-3-------1-1---3-1-1h3---- 
-2---2-2-------3-3-------0-0-------0h2---- 
-----0---0-------------------------0--0-0- 
---------------1---1-----3---3------------ 
------------------------------------------ 


Parte 2) 


 Dm            F         C 
-------------0-1-1---1-3-0-0-------------- 
---1-3-3---3---1-1-------1-1---3-1-1h3---- 
-2---2-2-------2-2-------0-0-------0h2---- 
-----0---0-------------------------0--0-0- 
-------------------------3---3------------ 
---------------3---3---------------------- 


Parte 3) 


 Dm            Gm 
-------------1-3-3---3-5-6-6---5-3-5------ 
---1-3-3---3---3-3-------------------3---- 
-2---2-2-------3-3-------------------2---- 
-----0---0-------------------------0---0-- 
-------------------------0---0------------ 
---------------5---5---------------------- 


Parte 5) 


---0-1-1---3-5-------1-0-0---------------- 
-3-------------3---3----------3-1--------- 
------------------------------------------ 
------------------------------------------ 
-----1---1---0---0-----0---0-------------- 
------------------------------------------ 


Parte 6) 


 Dm     Bb     A        Bb/A     A A    A 
-----0--1-1-3--5--------6--------0-0-0--0- 
-3-3----3-3----2-5-2----3-6-3----2-2-3--2- 
-2-2----3-3----2-----2--3-----3--2-2-3--2- 
---------------2--------3--------2-2-3--2- 
-0-0----1-1----0--------0--------0-0-0--0- 
------------------------------------------ 




Parte 1) 


 Dm         C5         Dm         G5 
-5-5-5-6-5--3-3-3-3-5--5-5-5-6-5---------- 
-6-6-6-6-6--1-1-1-1-3--6-6-6-6-6---------- 
-7-7-7-7-7-------------7-7-7-7-7---------- 
-0-0-0-0-0—-3-3-3-3-5--0-0-0-0-0--5-3-2-0- 
----------------------------------5-3-2-0- 
----------------------------------5-3-2-0- 


Parte 2) 


   Dm         C5           C5 
---0-1---3-5--3-1-0--1-3-5-3-------------- 
-3---------------------------------------- 
-------2--------0------0-----0------------ 
-----0------------------------------------ 
--------------3------------3-------------- 
---------------------3-------------------- 


Parte 3) 


                     Dm 
-1-3-5---3-1--0-1-0------0---------------- 
---------------------3-----1-3------------ 
-------0---------------2-------2---------- 
-----0---------------0-------0------------ 
--------------0--------------------------- 
------------------------------------------ 


Parte 4) 


 Dm          C5          Bb 
---0-1---0-1-3-1-3-5-3-1------------------ 
-3-----------------------3---------------- 
-------2-------0---------3---------------- 
-----0---------------------3-------------- 
-------------3-----0-----1---------------- 
------------------------------------------ 


Parte 5) 


           Gm 
---0-1-3-5-6---3-1---3-0------------------ 
-3-----------3-----------3---------------- 
-------------3-----0-------2-------------- 
-----------------0-------0---------------- 
------------------------------------------ 
-----------5------------------------------ 




Parte 1) 

     Dm   Bb/F   Dm 
---0-5--x--6--x--5-5---5-3---------------- 
-3---6--x--3--x--6-6---------------------- 
-----7--x--3--x--7-7---0------------------ 
-----0--x--3--x--0---0-------------------- 
--------x-----x--------3------------------ 
--------x-----x--------------------------- 


Parte 2) 

   Gm7    Dm 
-x--3--x--1--x-0-1-0---------------------- 
-x--3--x--3--x-------3-------------------- 
-x--3--x--2--x---------2------------------ 
-x--3--x--0--x-------0-------------------- 
-x--5--x-----x---------------------------- 
-x--5--x-----x---------------------------- 


Parte 1) 

     Dm   Bb/F   Dm 
---0-5--x--6--x--5-5---5-3---------------- 
-3---6--x--3--x--6-6---------------------- 
-----7--x--3--x--7-7---0------------------ 
-----0--x--3--x--0---0-------------------- 
--------x-----x--------3------------------ 
--------x-----x--------------------------- 


Parte 3) 


   Gm7   Dm          D5 
-x--3--x--1--x-0-1-0---------------------- 
-x--3--x--3--x-------3-------------------- 
-x--3--x--2--x-------2-------------------- 
-x--3--x--0--x-------0-------------------- 
-x--5--x-----x-------0-------------------- 
-x--5--x-----x-------0-------------------- 
	  

Full key step upFull key step up
Half key step upHalf key step up
Half key step downHalf key step down
Full key step downFull key step down
auto scroll beats size up size down change color hide chords drawings
tab show chords e-chords YouTube Clip e-chords hide all tabs e-chords go to top tab

share with facebook

Search Paypal