Sungha Jung

Billie Jean

Sungha Jung

tabs Expert expert

by  MENTALIZE

save to print version add songbook text version e-mail correct tuner
chordsukulelecavacokeyboardtabbassdrumsharmonicaflute Guitar Pro
close

there isn't a video lesson for this song

chords

Billie Jean

(Michael jackson)

	  		
Capotraste na 2 casa		 
Parte 1: 
   			                                                   (3x) 

E|-----------------------------------|-----------------------------------------| 
B|---{T}-------{T}----------{T}------|---------{T}-----------{T}---------------| 
G|---{A}-------{A}----------{A}------|---------{A}-----------{A}---------------| 
D|---{P}-------{P}--2-------{P}------|---------{P}--2--------{P}---------------| 
A|--------7--2---------5--2------2---|---7--2----------5--2--------2-----------| 
E|---------------------------5-------|------------------------5----------------| 


Parte 2: 
							                   (2x) 

E|--0----------2-------------------3-------------2-----------------------------| 
B|--0----{T}---2---------{T}-------3-------{T}---2-----------{T}---------------| 
G|--0----{A}---2---------{A}-------2-------{A}---2-----------{A}---------------| 
D|-------{P}-------------{P}---------------{P}---------------{P}---------------| 
A|----2-----------5--2---------2--------2------------5---2----------2----------| 
E|------------------------5-----------------------------------5----------------| 


Parte 3: 

E|-------------------------------------------------------------------------------| 
B|----0--{T}--0-------{T}--------0---------{T}-----0-------0-{T}-0---------------| 
G|----0--{A}--0----2--{A}--2-----0------2--{A}--0----------0-{A}-0----2----------| 
D|-------{P}-------0--{P}--0----------2----{P}--0------------{P}------0----------| 
A|--------------2-------------------2-----------------2------------2-------------| 
E|--0-------------------------0--------------------5-----0-----------------------| 



E|-------------------------------------------| 
B|--{T}--------0---{T}--2--{T}--0------------| 
G|--{A}--2-----0---{A}--2--{A}--0------------| 
D|--{P}--0---------{P}--2--{P}-----4---2-----| 
A|---------------------------------2---------| 
E|-----------0-------------------------------| 


Parte 4: 

E|----------------------------------------------------------| 
B|----------------{T}---------------------------------------| 
G|----------------{A}---------------------------------------| 
D|----------------{P}----2-2h4--------2-2h4-----2-2h4-------| 
A|--0---------0-----------------0---------------------------| 
E|-----0---3-----------0-----------0---------0--------------| 


Parte 5: 

E|--0----------2-------------------------------------------| 
B|--0-----{T}--2--------{T}--------------------------------| 
G|--0-----{A}--2--------{A}-------------2------------------| 
D|--------{P}-----------{P}------2--5---0--5--4--2---------| 
A|-----2----------5--2-------2-----------------------------| 
E|-----------------------5---------------------------------| 



E|----------------------------------------------------------| 
B|----------------{T}---------------------------------------| 
G|----------------{A}---------------------------------------| 
D|----------------{P}----2-2h4--------2-2h4-----2-2h4-------| 
A|--0---------0-----------------0---------------------------| 
E|-----0---3-----------0-----------0---------0--------------| 



E|--0----------2-------------------3-------------2-----------------------------| 
B|--0----{T}---2---------{T}-------3-------{T}---2-----------{T}---------------| 
G|--0----{A}---2---------{A}-------2-------{A}---2-----------{A}---------------| 
D|-------{P}-------------{P}---------------{P}---------------{P}---------------| 
A|----2-----------5--2---------2--------2------------5---2----------2----------| 
E|------------------------5-----------------------------------5----------------| 


Parte 6: 

E|-------------------------------------------------------------------------------| 
B|----0--{T}--0-------{T}--------0---------{T}-----0-------0-{T}-0---------------| 
G|----0--{A}--0----2--{A}--2-----0------2--{A}--0----------0-{A}-0----2----------| 
D|-------{P}-------0--{P}--0----------2----{P}--0------------{P}------0----------| 
A|--------------2-------------------2-----------------2------------2-------------| 
E|--0-------------------------0--------------------5-----0-----------------------| 



E|-------------------------------------------| 
B|--{T}--------0---{T}--2--{T}--0------------| 
G|--{A}--2-----0---{A}--2--{A}--0------------| 
D|--{P}--0---------{P}--2--{P}-----4---2-----| 
A|---------------------------------2---------| 
E|-----------0-------------------------------| 



E|----------------------------------------------------------| 
B|----------------{T}---------------------------------------| 
G|----------------{A}---------------------------------------| 
D|----------------{P}----2-2h4--------2-2h4-----2-2h4-------| 
A|--0---------0-----------------0---------------------------| 
E|-----0---3-----------0-----------0---------0--------------| 



E|--0----------2-------------------3-------------2-----------------------------| 
B|--0----{T}---2---------{T}-------3-------{T}---2-----------{T}---------------| 
G|--0----{A}---2---------{A}-------2-------{A}---2-----------{A}---------------| 
D|-------{P}-------------{P}---------------{P}---------------{P}---------------| 
A|----2-----------5--2---------2--------2------------5---2----------2----------| 
E|------------------------5-----------------------------------5----------------| 


Parte 7: 

E|--0--0-------0-----3-------3--3p0--0-------0-------------------0--0------------| 
B|--1--1--{T}--0-----1--{T}--0--0----0--{T}--0----0h3--{T}--0----1--1--{T}-------| 
G|--0--0--{A}--0--0-----{A}--0--0----0--{A}--0--0------{A}-------0--0--{A}-------| 
D|--2--2--{P}-----------{P}-------------{B}------------{B}-------------{P}-------| 
A|--3--3-------3-------------2--2------------2-------------------3--3------------| 
E|-------------------------------------------------------------------------------| 



E|--0-----0h2-------0----------0-----6/7---6/3-----0--0-------0----3---------------| 
B|--0-----0----{T}--0----------0-----7/8---8/5-----1--1--{T}--0----1--{T}----------| 
G|--0--0-------{A}---------------0---8/9---7/4-----0--0--{A}--0--0----{A}----------| 
D|-------------{P}---------------------------------2--2--{P}----------{P}----------| 
A|--3------------------------0---------------------3--3-------3--------------------| 
E|---------------------------------------------------------------------------------| 



E|--3--3p0--0-------0---------------------------0----0-------------------------| 
B|--0--0----0--{T}--0----0h3--{T}--0------1--3--1-------1---4--4--7---7--{T}---| 
G|--0--0----0--{A}--0--0------{A}---------0--0--0--0--------4--2--4---4--{A}---| 
D|-------------{P}------------{P}----------------------------------------{P}---| 
A|--2--2------------2---------------------3--2--3-----------2--4--6------------| 
E|-----------------------------------------------------------------------------| 


Parte 8: 

E|---------0-----3p0-----0-------------------------------------------------| 
B|--0-4/5-----5-------5-----5---0--4/5--0-------0-------0------------------| 
G|-----------------------------------------3/4-----2/4---------------------| 
D|----------------------------------------------------------2p0------------| 
A|--------------------------------------------------------------2p0--------| 
E|------------------------------------------------------------------3~p0---| 


Parte 9: 

E|-0-------0--------------0--0------------------0-----0-------0-------| 
B|-0--{T}--0-3p0--{T}-----0--0--{T}--3~p0--{T}--0-----0--{T}--0--3p0--| 
G|----{A}---------{A}-----------{A}--------{A}-----------{A}----------| 
D|----{P}---------{P}-----------{P}--------{P}-----------{P}----------| 
A|-----------2-----------------------2---------------------------2----| 
E|--------------------0---------------------------0-------------------| 



E|---------0--3-------5------3--2p0-------------------------7---5---0-------| 
B|-{T}-----0-----{T}------0--------------------{T}------------0---0----0h1-0| 
G|-{A}-----------{A}---------------------------{A}---------------------0h2-0| 
D|-{P}--------0--{P}--0------0-----------------{P}--------------------------| 
A|----------------------------------0--------------------0------------------| 
E|------0------------------------------0--3--0-----0--3-----5---5---0-------| 



E|--0----------2----------------0--3--5-----3p2p0--------------| 
B|--0----{T}---2---------{T}-------------0---------------------| 
G|--0----{A}---2---------{A}-----------------------------------| 
D|-------{P}-------------{P}--2----0--0------------------------| 
A|----2-----------5--2-----------------------------------------| 
E|------------------------5------------------------------------| 



E|-----------------------------7---5---0-------| 
B|----------------{T}------------0---0----0h1-0| 
G|----------------{A}---------------------0h2-0| 
D|----------------{P}--------------------------| 
A|-----0--------------------0------------------| 
E|--------0--3--0-----0--3-----5---5---0-------| 



E|--0----------2-------------------3-------------2-----------------------------| 
B|--0----{T}---2---------{T}-------3-------{T}---2-----------{T}---------------| 
G|--0----{A}---2---------{A}-------2-------{A}---2-----------{A}---------------| 
D|-------{P}-------------{P}---------------{P}---------------{P}---------------| 
A|----2-----------5--2---------2--------2------------5---2----------2----------| 
E|------------------------5-----------------------------------5----------------| 


Parte 10: 

E|-------------------------------------------------------------------------------| 
B|----0--{T}--0-------{T}--------0---------{T}-----0-------0-{T}-0---------------| 
G|----0--{A}--0----2--{A}--2-----0------2--{A}--0----------0-{A}-0----2----------| 
D|-------{P}-------0--{P}--0----------2----{P}--0------------{P}------0----------| 
A|--------------2-------------------2-----------------2------------2-------------| 
E|--0-------------------------0--------------------5-----0-----------------------| 



E|-------------------------------------------| 
B|--{T}--------0---{T}--2--{T}--0------------| 
G|--{A}--2-----0---{A}--2--{A}--0------------| 
D|--{P}--0---------{P}--2--{P}-----4---2-----| 
A|---------------------------------2---------| 
E|-----------0-------------------------------| 



E|----------------------------------------------------------| 
B|----------------{T}---------------------------------------| 
G|----------------{A}---------------------------------------| 
D|----------------{P}----2-2h4--------2-2h4-----2-2h4-------| 
A|--0---------0-----------------0---------------------------| 
E|-----0---3-----------0-----------0---------0--------------| 



E|--0----------2-------------------------------------------| 
B|--0-----{T}--2--------{T}--------------------------------| 
G|--0-----{A}--2--------{A}-------------2------------------| 
D|--------{P}-----------{P}------2--5---0--5--4--2---------| 
A|-----2----------5--2-------2-----------------------------| 
E|-----------------------5---------------------------------| 



E|------------------0--0--7--5--3--2-------------------5--3-3--3--3-3---12--| 
B|-------------{T}--------------------5-------{T}----0----0-0--5--0-0---12--| 
G|-------------{A}----------------------5--4--{A}--4---------------------9--| 
D|-------------{P}----------------------------{P}------------------------9--| 
A|--0-------0---------------------------------------------------------------| 
E|----0--3----------------5--5----------------------------------------------| 


Parte 11: 

E|-------------------------------------------------------------------------------| 
B|----0--{T}--0-------{T}--------0---------{T}-----0-------0-{T}-0---------------| 
G|----0--{A}--0----2--{A}--2-----0------2--{A}--0----------0-{A}-0----2----------| 
D|-------{P}-------0--{P}--0----------2----{P}--0------------{P}------0----------| 
A|--------------2-------------------2-----------------2------------2-------------| 
E|--0-------------------------0--------------------5-----0-----------------------| 



E|-------------------------------------------| 
B|--{T}--------0---{T}--2--{T}--0------------| 
G|--{A}--2-----0---{A}--2--{A}--0------------| 
D|--{P}--0---------{P}--2--{P}-----4---2-----| 
A|---------------------------------2---------| 
E|-----------0-------------------------------| 



E|----------------------------------------------------------------| 
B|-------------{T}-----------{T}-------------{T}------------------| 
G|-------------{A}---4--4p2--{A}----4--4p2---{A}------4--4p2------| 
D|-------------{P}-----------{P}-------------{P}------------------| 
A|---0------0-----------------------------------------------------| 
E|-----0--3--------0--------------0----------------0--------------| 



E|--0----------2-------------------3-------------2-----------------------------| 
B|--0----{T}---2---------{T}-------3-------{T}---2-----------{T}---------------| 
G|--0----{A}---2---------{A}-------2-------{A}---2-----------{A}---------------| 
D|-------{P}-------------{P}---------------{P}---------------{P}---------------| 
A|----2-----------5--2---------2--------2------------5---2----------2----------| 
E|------------------------5-----------------------------------5----------------| 


Parte 12: 

E|--0--0-------0-----3-------3--3p0--0-------0-------------------0--0------------| 
B|--1--1--{T}--0-----1--{T}--0--0----0--{T}--0----0h3--{T}--0----1--1--{T}-------| 
G|--0--0--{A}--0--0-----{A}--0--0----0--{A}--0--0------{A}-------0--0--{A}-------| 
D|--2--2--{P}-----------{P}-------------{B}------------{B}-------------{P}-------| 
A|--3--3-------3-------------2--2------------2-------------------3--3------------| 
E|-------------------------------------------------------------------------------| 



E|--0-----0h2-------0----------0-----6/7---6/3-----0--0-------0----3---------------| 
B|--0-----0----{T}--0----------0-----7/8---8/5-----1--1--{T}--0----1--{T}----------| 
G|--0--0-------{A}---------------0---8/9---7/4-----0--0--{A}--0--0----{A}----------| 
D|-------------{P}---------------------------------2--2--{P}----------{P}----------| 
A|--3------------------------0---------------------3--3-------3--------------------| 
E|---------------------------------------------------------------------------------| 



E|--3--3p0--0-------0---------------------------0----0-------------------------| 
B|--0--0----0--{T}--0----0h3--{T}--0------1--3--1-------1---4--4--7---7--{T}---| 
G|--0--0----0--{A}--0--0------{A}---------0--0--0--0--------4--2--4---4--{A}---| 
D|-------------{P}------------{P}----------------------------------------{P}---| 
A|--2--2------------2---------------------3--2--3-----------2--4--6------------| 
E|-----------------------------------------------------------------------------| 


Parte 13: 

E|--3/5--3-----------------------------------------------| 
B|----------5-3p0---------0-----0------------------------| 
G|-----------------4p2p0-----2-----2---------------------| 
D|-------------------------------------5--4--2-----------| 
A|----------------------------------------------5--------| 
E|-------------------------------------------------3-----| 


Parte 14: 

E|-0-------0--------------0--0------------------0-----0-------0-------| 
B|-0--{T}--0-3p0--{T}-----0--0--{T}--3~p0--{T}--0-----0--{T}--0--3p0--| 
G|----{A}---------{A}-----------{A}--------{A}-----------{A}----------| 
D|----{P}---------{P}-----------{P}--------{P}-----------{P}----------| 
A|-----------2-----------------------2---------------------------2----| 
E|--------------------0---------------------------0-------------------| 



E|---------0--3-------5------3--2p0-------------------------7---5---0-------| 
B|-{T}-----0-----{T}------0--------------------{T}------------0---0----0h1-0| 
G|-{A}-----------{A}---------------------------{A}---------------------0h2-0| 
D|-{P}--------0--{P}--0------0-----------------{P}--------------------------| 
A|----------------------------------0--------------------0------------------| 
E|------0------------------------------0--3--0-----0--3-----5---5---0-------| 



E|--0----------2----------------0--3--5-----3p2p0--------------| 
B|--0----{T}---2---------{T}-------------0---------------------| 
G|--0----{A}---2---------{A}-----------------------------------| 
D|-------{P}-------------{P}--2----0--0------------------------| 
A|----2-----------5--2-----------------------------------------| 
E|------------------------5------------------------------------| 



E|-----------------------------7---5---0-------| 
B|----------------{T}------------0---0----0h1-0| 
G|----------------{A}---------------------0h2-0| 
D|----------------{P}--------------------------| 
A|-----0--------------------0------------------| 
E|--------0--3--0-----0--3-----5---5---0-------| 

								           (2x) 

E|--0----------2-------------------3-------------2-----------------------------| 
B|--0----{T}---2---------{T}-------3-------{T}---2-----------{T}---------------| 
G|--0----{A}---2---------{A}-------2-------{A}---2-----------{A}---------------| 
D|-------{P}-------------{P}---------------{P}---------------{P}---------------| 
A|----2-----------5--2---------2--------2------------5---2----------2----------| 
E|------------------------5-----------------------------------5----------------| 



E|---3---x-x---2---------------| 
B|---4---x-x---3---{T}-{T}-----| 
G|---3---x-x---2---{A}-{A}-----| 
D|---5---x-x---4---{P}-{P}-----| 
A|---3---x-x---2---------------| 
E|---3---------2---------------| 


Parte 15: 
			   (3x) 

E|-----------------------0-----|------------------------------------------------0--| 
B|-----------------------0-{T}-|------------------------------------------------0--| 
G|----0--2/4--2--0--2/4----{A}-|----0--2/4--2--0----2/4--2--0----2/4--2--0--2/4----| 
D|--2----------------------{P}-|-2---------------2-------------2-------------------| 
A|-----------------------------|---------------------------------------------------| 
E|-----------------------------|---------------------------------------------------| 



E|--------------------------0--------------------------0-----0-7p5p0----------------| 
B|-{T}----------------------0-{T}----------------------0-{T}-0------7p5p0-----------| 
G|-{A}----0--2/4--2--0--2/4---{A}----0--2/4--2--0--2/9---{A}-------------5p3p0------| 
D|-{P}--2---------------------{P}--2---------------------{P}------------------5p4p0-| 
A|----------------------------------------------------------------------------------| 
E|----------------------------------------------------------------------------------| 


Parte 16:  
								           (4x) 

E|--0----------2-------------------3-------------2-----------------------------| 
B|--0----{T}---2---------{T}-------3-------{T}---2-----------{T}---------------| 
G|--0----{A}---2---------{A}-------2-------{A}---2-----------{A}---------------| 
D|-------{P}-------------{P}---------------{P}---------------{P}---------------| 
A|----2-----------5--2---------2--------2------------5---2----------2----------| 
E|------------------------5-----------------------------------5----------------| 


E|---3--x-x--2--x-x--0~----| 
B|---4--x-x--3--x-x--0~----| 
G|---3--x-x--2--x-x--0~----| 
D|---5--x-x--4--x-x--2~----| 
A|---3--x-x--2--x-x--2~----| 
E|---3-------2-------------| 
		  

See also:

tabs Sungha Jung - Love Story tabs Sungha Jung - One Of Us tabs Sungha Jung - Tears In Heaven tabs Sungha Jung - Super Mario tabs Sungha Jung - Zeldas Theme tabs Sungha Jung - November Rain
e-chords

Other versions:

tabs Michael Jackson - BILLIE JEAN tabs Sungha Jung - Billie Jean tabs Nonpoint - Billie Jean tabs Michael Jackson - Billie Jean ( ver. 2 ) tabs The Civil Wars - Billie Jean (cover) tabs Michael Jackson - Billie Jean (Fingerstyle)
auto scroll beats size up size down change color hide chords drawings
tab show chords e-chords YouTube Clip e-chords hide all tabs e-chords go to top tab

share