Sugarleaf

Everythung Is So Confuse

Sugarleaf

tabs

by  PEDRO_RUSTU

save to print version add songbook text version e-mail correct tuner
chordsukulelecavacokeyboardtabbassdrumsharmonicaflute Guitar Pro
close

there isn't a video lesson for this song

chords

Everythung Is So Confuse

	  		Artist: Sugarleaf 
Song: Everything is So Confusing 

This is my first tab, I?m not sure if this tab is 100% right, hope you enjoy it! 

Standard Tuning E-a-d-g-b-e 
/=slide up 
\=slide down 
p= pull off 
h= hammer on 
b= bend 
~= ring 

Intro:  
G        D            Am7            C           G 
Everything is so confusing when you walk away 


Intro (second part): Guitar 2 
Riff 1: 
e|------|-------|------|----------|---------------------------------------------------------| 
b|------|-------|------|----------|----8--8--8--8-10-10p8--8--8?-7-8-------| 
g|------|-------|------|----------|---7--7--7--7---------------7--7-------------------| 
d|------|-------|------|----------|---------------------------------------------------------| 
a|------|-------|------|----------|---------------------------------------------------------| 
e |-----|-------|------|----------|---------------------------------------------------------| 
____________________________________________________________________________ 


Verse: Guitar 1 
G             D 
You jumped into my bed again 
Am7           C               G  
The rain was pouring down my window 
D                  C                  C 
I feel like being stuck all day with you 
G            D  
The moment kept us hanging on 
Am7         C             G  
Forgetting all about the realness 
D                   C                       C 
But that?s just it cause I?ll be here with you 

Verse: Guitar 2: Riff 1 
e|-------------------------------------------------------| 
b|--8--8--8--8-10-10p8--8--8?7-8--------| 
g|-7--7--7--7----------------7--7------------------|  4x 
d|-------------------------------------------------------| 
a|-------------------------------------------------------| 
e|-------------------------------------------------------| 
____________________________________________________________________________ 
____________________________________________________________________________ 

Chorus: 2x 
G       D            Am7             C  
Everything is so confusing when you walk away 
G       D           Am7             C                  
Everything is so amusing when you walk into my way 
____________________________________________________________________________ 
____________________________________________________________________________ 

Post-Chorus: Riff1 

2ºVerse: 
Let?s laugh let?s play some dominoes 
Let?s jump until we get so tired 
That we can fall asleep like children do 
(Riff 1) 
I?ll cook while you?re watching TV 
I?ll book the seats under the tree 
I wonder if the rain will stop before we do 
____________________________________________________________________________ 
____________________________________________________________________________ 

Chorus: 2x 

Solo: 
e|------------------------------------------------------------------------- ------------------------------------------| 
b|-12~-8?-8-8-8/10b-10/12b-10p8--12~-8--8-8-8/10b-10/12b-10p8---------------| 
g|--------------7-----------------------------------------------7---------------------------------------------------| 
d|--------------------------------------------------------------------------------------------------------------------| 
a|--------------------------------------------------------------------------------------------------------------------| 
e|--------------------------------------------------------------------------------------------------------------------| 

Chorus: 2x 
		  

Full key step upFull key step up
Half key step upHalf key step up
Half key step downHalf key step down
Full key step downFull key step down
hide glossary

See also:

tabs Nelly Furtado - In God's Hands tabs Nelly Furtado - All Good Things Come To An End tabs Sugarleaf - Everythung Is So Confuse tabs Nelly Furtado - Afraid tabs Humanos - Muda de vida tabs Nelly Furtado - Promiscuous
e-chords

Other versions:

tabs Sugarleaf - Everythung Is So Confuse
auto scroll beats size up size down change color hide chords drawings
tab show chords e-chords YouTube Clip e-chords hide all tabs e-chords go to top tab

share