Strung Out

Velvet Alley

Strung Out

tabs

by  DANYNHU

save to print version add songbook text version e-mail correct tuner
chordsukulelecavacokeyboardtabbassdrumsharmonicaflute Guitar Pro
close

there isn't a video lesson for this song

chords

Velvet Alley

	  		-5------5------5---3------3------3---1------0------1------0------1---0-- 
-6------6------6---5------5------5---3------3------3------3------3---3-- 
-7------7------7---5------5------5---3------3------3------3------3---3-- 
---0-0---0-0---0----0-0---0-0---0----0-0---0-0---0-0---0-0---0---0 
--------------------------------------------------------------------------------- 
--------------------------------------------------------------------------------- 
 
-5------5------5---3------3------3---1------0------1---3------0------3-- 
-6------6------6---5------5------5---3------3------3---5------5------5-- 
-7------7------7---5------5------5---3------3------3---5------5------5-- 
---0-0---0-0---0----0-0---0-0---0----0-0---0-0---0---0-0---0-0---0 
--------------------------------------------------------------------------------- 
--------------------------------------------------------------------------------- 
 
------------5555--------------------------------------------------------------- 
-3333----3333----6668-5556-3333------------------------------------ 
-2222----2222----5555-5555-2222------------------------------------ 
-0000-0-0000-0-7777-5555--0000-0--3333--5555--------------- 
---------------------------------------------------1111--3333--/7-6-------- 
---------------------------------------------------------------------S-----7----- 
 
------------------------------------------------------------------------------------- 
-33-------------------------------------------------------------------------------- 
-22--------3-5-3-0--2-3-2-0-------------------------------------------------- 
-00--------------------------------3-5-3-0--2-3-2-0--5-7-5-0--3-5-3-0-- 
------4/5-------------------------------------------------------------------------- 
-------S---------------------------------------------------------------------------- 
 
------------------------------------------------------------------------------------- 
-33--------------------------------------------------------------------------------- 
-22--------3-5-3-0--2-3-2-0--------------------------------------------------- 
-00---------------------------------3-5-3-0--2-3-2-0--2-3-2-0--3-5-3-0-- 
------4/5--------------------------------------------------------------------------- 
-------S---------------------------------------------------------------------------- 
		  

See also:

tabs Green Day - 16 tabs Blink 182 - Feeling This tabs Blink 182 - Stay Together 4 the Kids tabs Green Day - Wake Me Up When September Ends tabs Blink 182 - First Date tabs Green Day - 21 Guns
e-chords

Other versions:

tabs Strung Out - Velvet Alley
auto scroll beats size up size down change color hide chords drawings
tab show chords e-chords YouTube Clip e-chords hide all tabs e-chords go to top tab

share